Burning Airlines – A Song With No Words tab

Burning Airlines - A Song with No Words

I am proud to present this, my first -complete- Burning Airlines tab.
Please give me an email if you looked at this tab.
It may determine whether or not I finish the Deluxe War Baby as well
as Scissoring (which is almost complete).

email:  leows@msoe.edu   xBLAHMASTERx

Tuning:  Start in standard, then tune all strings down a half step.
Eb
Bb
Gb
Db
Ab
Eb

|-14--15-14--15-14--17-14--15-14--15-14------------------------||-------------------------------------------15---15---15-14----||----------------------------------------17b--17b--17b------14-||--------------------------------------------------------------||--------------------------------------------------------------||--------------------------------------------------------------|
|-14--15-14--15-14--17-14--15-14--15-14------------------------||-------------------------------------------15---15---15-14----||----------------------------------------17b--17b--17b------14-||--------------------------------------------------------------||--------------------------------------------------------------||--------------------------------------------------------------|
|-14--15-14--15-14--17-14--15-14--15-14---------------------------------||-------------------------------------------15---15---15-14----15-------||----------------------------------------17b--17b--17b------14----14\11-||-----------------------------------------------------------------------||-----------------------------------------------------------------------||-----------------------------------------------------------------------|
|-------------------------------------------------------------||-------------------------------------17------15--------------||---14--14--14--14------------------14--14--14--14----15------||-16--16--16--16----16--16--14--1416------16--------16--16\12-||-----------------16--16--17--17------------------16----------||-------------------------------------------------------------|
|-------------------------2------------------||----3h5-----3-5-----3-5----3----------------||-4/5-----2/3-----4p0---------4-----5-4------||---------------------------------4------4---||------------------------------------------5-||-------------------------------2------------|
|-14--15-14--15-14--17-14--15-14--15-14------------------------||-------------------------------------------15---15---15-14----||----------------------------------------17b--17b--17b------14-||--------------------------------------------------------------||--------------------------------------------------------------||--------------------------------------------------------------|
|-14--15-14--15-14--17-14--15-14--15-14---------------------------------||-------------------------------------------15---15---15-14----15-------||----------------------------------------17b--17b--17b------14----14\11-||-----------------------------------------------------------------------||-----------------------------------------------------------------------||-----------------------------------------------------------------------|
|-------------------------------------------------------------||-------------------------------------17------15--------------||---14--14--14--14------------------14--14--14--14----15------||-16--16--16--16----16--16--14--1416------16--------16--16\12-||-----------------16--16--17--17------------------16----------||-------------------------------------------------------------|
|-------------------------2------------------||----3h5-----3-5-----3-5----3----------------||-4/5-----2/3-----4p0---------4-----5-4------||---------------------------------4------4---||------------------------------------------5-||-------------------------------2------------|
|-------------------------2------------------||----3h5-----3-5-----3-5----3----------------||-4/5-----2/3-----4p0---------4-----5-4------||---------------------------------4------4---||------------------------------------------5-||-------------------------------2------------|
|-14--15-14--15-14--17-14--15-14--15-14------------------------||-------------------------------------------15---15---15-14----||----------------------------------------17b--17b--17b------14-||--------------------------------------------------------------||--------------------------------------------------------------||--------------------------------------------------------------|
|-14--15-14--15-14--17-14--15-14--15-14------------------------||-------------------------------------------15---15---15-14----||----------------------------------------17b--17b--17b------14-||--------------------------------------------------------------||--------------------------------------------------------------||--------------------------------------------------------------|
|-14--15-14--15-14--17-14--15-14--15-14---------------------------------||-------------------------------------------15---15---15-14----15-------||----------------------------------------17b--17b--17b------14----14\11-||-----------------------------------------------------------------------||-----------------------------------------------------------------------||-----------------------------------------------------------------------|
|-------------------------------------------------------------------------||-------------------------------------------------------------------------||-----------------17------18------19------17------18------19--------------||-16br--16br--1617--171617--171617--171617--171617--171617--1716171416\12-||-------------------------------------------------------------------------||-------------------------------------------------------------------------|
|-14--15-14--15-14--17-14--15-14--15-14------------------------||-------------------------------------------15---15---15-14----||----------------------------------------17b--17b--17b------14-||--------------------------------------------------------------||--------------------------------------------------------------||--------------------------------------------------------------|
|-14--15-14--15-14--17-14--15-14--15-14------------------------||-------------------------------------------15---15---15-14----||----------------------------------------17b--17b--17b------14-||--------------------------------------------------------------||--------------------------------------------------------------||--------------------------------------------------------------|
|-14--15-14--15-14--17-14--15-14--15-14------------------------||-------------------------------------------15---15---15-14----||----------------------------------------17b--17b--17b------14-||--------------------------------------------------------------||--------------------------------------------------------------||--------------------------------------------------------------|
|-14--15-14--15-14--17-14--15-14--15-14---------------------------------||-------------------------------------------15---15---15-14----15-------||----------------------------------------17b--17b--17b------14----14\11-||-----------------------------------------------------------------------||-----------------------------------------------------------------------||-----------------------------------------------------------------------|
Please rate this tab:
x1.0