Bush - Cold Contagious tab

BAND: Bush
SONG: Cold Contagious
CD: Razorblade Suitcase

Intro:

-0------0-------0---------------------|--------------------------|-0------0--------------------0---0----|-----------------0---0----|---------------------------5-------/9-|------9\-5-----5-------/9-|-------------------------5-----5---/9-|-------\-5---5-----5---/9-|------------------------------------7-|----7--\-3--------------7-|--------------------------------------|--------------------------|
--------------------|----------------0---|-----9\-/5----5---/-|---9--\-/5--5-----/-|-7----\-/3----------|--------------------|
Verse: The Verses are just EXTREAMLY loose versions of this:
-------------------|---------------0---|-----9\-5----5---/-|---9--\-5--5-----/-|-7----\-3----------|-------------------|
Just fool around with this playin stuff with open strings and stuff. Pretty much everything sounds right!! Pre-Chorus:
--------------------------------------------|--------------------------------------------|-9--9-9-9--9-9-9-9-9-\-5-5-5-5--5-5-5-5-5-/-|-9--9-9-9--9-9-9-9-9-\-5-5-5-5--5-5-5-5-5-/-|-7--7-7-7--7-7-7-7-7-\-3-3-3-3--3-3-3-3-3-/-|--------------------------------------------|(bolds=P.M. chords)
Chorus: (distorted)
------------------------|------------------------|----------5--5-5-5--5-5-|-7--7--7--5--5-5-5--5-5-|-7--7--7--3--3-3-3--3-3-|-5--5--5----------------|
------------------------|------------------------|------------------------|-5--5-5-5-3-3-3-3-3-3-3-|-5--5-5-5-3-3-3-3-3-3-3-|-3--3-3-3-1-1-1-1-1-1-0-|--play only this twice--
1st time: All Guitars back to Verse. 2nd time:
------------------------|------------------------|-9--9--9--5-5-5-5-5-5-5-|-9--9--9--5-5-5-5-5-5-5-|-7--7--7--3-3-3-3-3-3-3-|------------------------|------play 3 times------
Solo:
-----------------------------------------------------------------|-----------------------------------------------------------------|-12-12-12-12-12-12-12-12-12-12-12-12/15-15-15/17--17-17-17-17-17-|( ^pick 12 as fast as possible)----------------------------------|-----------------------------------------------------------------|-----------------------------------------------------------------|(Also, flick the toggle rapidly while playing 12)
----14b15r14-12-11-b12r-b12r-b12r-b12r-|---X-----------------------------------|--X------------------------------------|(just fill the end of this with-X-------------------------------------|feedback and bends)---------------------------------------|---------------------------------------|
Interlude: Bass plays a little riff. Lead plays loose riffs. (those real high notes you hear here are played behind the nut) After all that, Rhythm plays this alone:
---------------------|----------------------------|---------------------|----------------------------|-9--9--5-5-5-5-5-5-5-|-9--9--12-12-12-12-12-12-12-|-9--9--5-5-5-5-5-5-5-|-9--9--12-12-12-12-12-12-12-|-7--7--3-3-3-3-3-3-3-|-7--7--10-10-10-10-10-10-10-|---------------------|----------------------------|
Outro:
---------------------|---------------------|-9--9--5-5-5-5-5-5-5-|-9--9--5-5-5-5-5-5-5-|-7--7--3-3-3-3-3-3-3-|---------------------|--play this till end-
---------------------|---------------------------------------------|---------------------|---10---10-10-10-10-----12----12-----12---12-|-9-9-9-9-9-9-9-9-9-9-|-9----9-------------/12----12-----12----12---|---------------------|---------------------------------------------|---------------------|---------------------------------------------|---------------------|---------------------------------------------|(at the end of each measure, all instrements stop)====
Tap to rate this tab
 
# A B C D E F G H I J K L M N O P Q R S T U V W X Y Z