What I Go To School For tab with lyrics by Busted - Easy chords and tabs for guitar

Busted – What I Go To School For tab

There are actually three guitar parts to this song, but I tabbed just the two, because 
will give you basically the full effect, and is playable and recognisable as what I go to 
for.

All the other tabs on here have just given the chords, so i thought i'd do both parts. 
my first tab,  any comments/suggestions email me, anotherwaydown@gmail.com
Cheers

Intro(Slight Delay)----5-----5-----5-----5----||------5-----5-----5-----5-||--2-----2-----4-----7-----|x2|--------------------------||--------------------------||--------------------------|
Guitar II
|-----------------------------------||-----------------------------------||--2-2-2-2-2-2-2-2-4-4-4-4-7-7-7-7--||-----------------------------------| x2|-----------------------------------||-----------------------------------|
VerseGuitar I|----5-----5-----5---5-----5-----5---5-----5-----5---5-----5-----5-||------5-----5---------5-----5---------5-----5---------5-----5-----|x5|--2-----2-----2---4-----4-----4---6-----6-----6---4-----4-----4---||------------------------------------------------------------------||------------------------------------------------------------------||------------------------------------------------------------------|
Guitar II|-------------------------------------------------------------------||-------------------------------------------------------------------||--2-2-2-2-2-2-2-2-4-4-4-4-4-4-4-4-6-6-6-6-6-6-6-6-4-4-4-4-4-4-4-4--| x5|-------------------------------------------------------------------||-------------------------------------------------------------------||-------------------------------------------------------------------|
Guitar I
|----5-----5-----5---5-----5-----5---5-----5-----5----||------5-----5---------5-----5---------5-----5--------||--2-----2-----2---4-----4-----4---6-----6-----6---22-||--------------------------------------------------22-||--------------------------------------------------00-||-----------------------------------------------------|
Guitar II
|--------------------------------------------------------||--------------------------------------------------------||--2-2-2-2-2-2-2-2-4-4-4-4-4-4-4-4-6-6-6-6-6-6-6-6-22-22-||--------------------------------------------------22-22-||--------------------------------------------------00-00-||--------------------------------------------------------|
Chorus:
-----------------------------------------------------------------|-----------------------------------------------------------------|-2-2-2-2-2-2-2-2-7-7-7-7-7-7-7-7---------------------------------| x 2-2-2-2-2-2-2-2-2-7-7-7-7-7-7-7-7-4-4-4-4-4-4-4-4-2-2-2-2-2-2-2-2-|-0-0-0-0-0-0-0-0-5-5-5-5-5-5-5-5-4-4-4-4-4-4-4-4-2-2-2-2-2-2-2-2-|---------------------------------2-2-2-2-2-2-2-2-0-0-0-0-0-0-0-0-|
Chorus End-----------------------------------------|-----------------------------------------|-2-2-2-2-2-2-2-2-----4-4-----------------|-2-2-2-2-2-2-2-2-----4-4-----------------|-0-0-0-0-0-0-0-0-----2-2-----------------|-----------------------------------------|
Bridge
|--0-5-0-0-5-0-0-5-0-5h-7p-5p0-----||----------------------------------||----------------------------------||----------------------------- x 6-||----------------------------------||----------------------------------|
Solo Guitar I
|--9------9\7--5/7--5 5-4h5----5--5/7---||---------------------------------------||---------------------------------------||-----------------------------------x 2-||---------------------------------------||---------------------------------------|
Guitar II|----5-----5-----5---5-----5-----5---5-----5-----5---5-----5-----5-||------5-----5---------5-----5---------5-----5---------5-----5-----|x5|--2-----2-----2---4-----4-----4---6-----6-----6---4-----4-----4---||------------------------------------------------------------------||------------------------------------------------------------------||------------------------------------------------------------------|
Outro Guitar I
|--9------||--9b10---||---------||---------|x 16|---------||---------|
Guitar II
-----------------------------------------------------------------|-----------------------------------------------------------------|-2-2-2-2-2-2-2-2-7-7-7-7-7-7-7-7---------------------------------| x 2-2-2-2-2-2-2-2-2-7-7-7-7-7-7-7-7-4-4-4-4-4-4-4-4-2-2-2-2-2-2-2-2-|-0-0-0-0-0-0-0-0-5-5-5-5-5-5-5-5-4-4-4-4-4-4-4-4-2-2-2-2-2-2-2-2-|---------------------------------2-2-2-2-2-2-2-2-0-0-0-0-0-0-0-0-|
Please rate this tab:
x1.0