C3 - Send Down Your Love tab version 1

Intro Piano x2

|-------------------------------------||12----15-----------12----15----------||---------12----14-----------12----14-||-------------------------------------||-------------------------------------||-------------------------------------|
|-------------------------------------||---------10----15----------10---15---||11---12------------11---12-----------||-------------------------------------||-------------------------------------||-------------------------------------|
Intro Guitar x2
|----------------------------------------------------||12-12-12-15-15-15-----------------------------------||------------------12-12-12-14-14-14-14-14-14-14-14--||----------------------------------------------------||----------------------------------------------------||----------------------------------------------------|
|----------------------------------------------------||12-12-12-12-15-15-----------------------------------||------------------12-12-12-14-14-14-14-14-14-14-14--||----------------------------------------------------||----------------------------------------------------||----------------------------------------------------|
|----------------------------------------------------||------------------10-10-10-15-15-15-15-15-15--------||11-11-11-12-12-12-----------------------------------||----------------------------------------------------||----------------------------------------------------||----------------------------------------------------|
|----------------------------------------------------||------------------10-10-10-15-15-15-15-15-15--------||11-11-11-12-12-12-----------------------------------||----------------------------------------------------||----------------------------------------------------||----------------------------------------------------|
Verse x2 palm mute
|-----------------------------------------------------------||8888888888888888888888888888888888888888881010101010101010-||-----------------------------------------------------------||-----------------------------------------------------------||-----------------------------------------------------------||-----------------------------------------------------------|
Pre chorus
|12------10-----10-----12-----------------------------------||12------8------10-----10-----------------------------------||-----------------------------------------------------------||-----------------------------------------------------------||-----------------------------------------------------------||-----------------------------------------------------------|
Chorus x2
|-----------------------------------------------------------||------------10-10-12-12------------------------------------||11-11-12-12-------------9-9-9-9-9-9-9-9--------------------||-----------------------------------------------------------||-----------------------------------------------------------||-----------------------------------------------------------|
|-----------------------------------------------------------||------------10-10-12-12------------------------------------||11-11-12-12------------------------------------------------||------------------------12-12-12-12-12-12-12-12------------||-----------------------------------------------------------||-----------------------------------------------------------|
|-----------------------------------------------------------||------------10-10-12-12------------------------------------||11-11-12-12-------------11-11-11-11-11-11-11-11-11-11-11-11||-----------------------------------------------------------||-----------------------------------------------------------||-----------------------------------------------------------|
Second Intro only once
|----------------------------------------------------||12-12-12-15-15-15-----------------------------------||------------------12-12-12-14-14-14-14-14-14-14-14--||----------------------------------------------------||----------------------------------------------------||----------------------------------------------------|
|----------------------------------------------------||12-12-12-12-15-15-----------------------------------||------------------12-12-12-14-14-14-14-14-14-14-14--||----------------------------------------------------||----------------------------------------------------||----------------------------------------------------|
|----------------------------------------------------||------------------10-10-10-15-15-15-15-15-15--------||11-11-11-12-12-12-----------------------------------||----------------------------------------------------||----------------------------------------------------||----------------------------------------------------|
|----------------------------------------------------||------------------10-10-10-15-15-15-15-15-15--------||11-11-11-12-12-12-----------------------------------||----------------------------------------------------||----------------------------------------------------||----------------------------------------------------|
Verse 2 palm mute
|-----------------------------------------------------------||8888888888888888888888888888888888888888881010101010101010-||-----------------------------------------------------------||-----------------------------------------------------------||-----------------------------------------------------------||-----------------------------------------------------------|
Pre chorus
|12------10-----10-----12-----------------------------------||12------8------10-----10-----------------------------------||-----------------------------------------------------------||-----------------------------------------------------------||-----------------------------------------------------------||-----------------------------------------------------------|
Chorus x4
|-----------------------------------------------------------||------------10-10-12-12------------------------------------||11-11-12-12-------------9-9-9-9-9-9-9-9--------------------||-----------------------------------------------------------||-----------------------------------------------------------||-----------------------------------------------------------|
|-----------------------------------------------------------||------------10-10-12-12------------------------------------||11-11-12-12------------------------------------------------||------------------------12-12-12-12-12-12-12-12------------||-----------------------------------------------------------||-----------------------------------------------------------|
|-----------------------------------------------------------||------------10-10-12-12------------------------------------||11-11-12-12-------------11-11-11-11-11-11-11-11-11-11-11-11||-----------------------------------------------------------||-----------------------------------------------------------||-----------------------------------------------------------|
After Chorus
|12------10-----10-----12-----------------------------------||12------8------10-----10-----------------------------------||-----------------------------------------------------------||-----------------------------------------------------------||-----------------------------------------------------------||-----------------------------------------------------------|
Oh Jesus Jesus you are Lord Oh Jesus Jesus You are Lord Em G D A2 Oh Jesus Jesus You are Lord Em G D A2 Oh Jesus Jesus You are Lord Em G D A2 Oh Jesus Jesus You are Lord Em G D A2 Oh Jesus Jesus You are Lord Em G D A2 Oh Jesus Jesus You are Lord Em G D A2 Oh Jesus Jesus You are Lord After the 6th Oh Jesus Jesus You are Lord Outro
|----------------------------------------------------||12-12-12-15-15-15-----------------------------------||------------------12-12-12-14-14-14-14-14-14-14-14--||----------------------------------------------------||----------------------------------------------------||----------------------------------------------------|
|----------------------------------------------------||12-12-12-12-15-15-----------------------------------||------------------12-12-12-14-14-14-14-14-14-14-14--||----------------------------------------------------||----------------------------------------------------||----------------------------------------------------|
|----------------------------------------------------||------------------10-10-10-15-15-15-15-15-15--------||11-11-11-12-12-12-----------------------------------||----------------------------------------------------||----------------------------------------------------||----------------------------------------------------|
|----------------------------------------------------||------------------10-10-10-15-15-15-15-15-15--------||11-11-11-12-12-12-----------------------------------||----------------------------------------------------||----------------------------------------------------||----------------------------------------------------|
Tap to rate this tab
 
# A B C D E F G H I J K L M N O P Q R S T U V W X Y Z