Judas tab with lyrics by Cage The Elephant - Easy chords and tabs for guitar

Cage The Elephant – Judas tab

JUDAS - Cage The Elephant

Tabbed By: Trevorr2
Email: Trevor__rice@hotmail.com

Tuning: Standard eBGDAE

Everytings tabbed, both guitars, except for the last part for guitar 1.
Other than that, there shouldnt be too many mistakes. Feel free to send me
the missing part at the end or any suggestions/corrections that you have
about the tab at: Trevor__rice@hotmail.com (2 underscores in the email).
anyways great song, enjoy.

\\\\\\\\\\\\\\\\\\\\\\\\\\\\\\\///////////////////////////////////////
 \\\\\\\\\\\\\\\\\\\\\\\\\\Guitar 1//////////////////////////////////
  \\\\\\\\\\\\\\\\\\\\\\\\\\\\\/////////////////////////////////////

X1 intro (0:00-0:13)|--------------------------------|-------------------------||----------------8-8-8-8-6-6-----|-----------------8-8-8-8-||--------7-7-7-7-------------7-7-|---------7-7-7-7---------||5-5-5-5-------------------------|5-5-5-5------------------||--------------------------------|-------------------------||--------------------------------|-------------------------|
|----------------------------------10-10-10-10-8-8-------||6/13-13-13-13---------10-10-10-10-----------------10-10-||5/12-12-12-12-7-7-7-7-----------------------------------||--------------------------------------------------------||--------------------------------------------------------||--------------------------------------------------------|
|----------------------||------------6/13---11-||--------7-7-5/12---10-||5-5-5-5---------------||----------------------||----------------------|
X1 Verse (0:14-0:27)|---------------------------------13----------------------||------------------------15----------15----15------6/13---||7-----------------------14-------------14-14------5/12---||7-----------------------12----------------12-------------||5--------------------------------------------------------||---------------------------------------------------------|
X2 Pre-chorus (0:28-0:41)|----5--6--5--6--5---8------8-10--11--10--11--10-----8-||------------------6------8----------------------------||--7----------------------------------------------10---||5-----------------------------------------------------||------------------------------------------------------||------------------------------------------------------|
X2 Chorus (0:42-0:55)|------------------------------------------------||15-15-15-15-15-15-15-15-11-11-11-11-11-11-11-11-||15-15-15-15-15-15-15-15-12-12-12-12-12-12-12-12-||------------------------------------------------||------------------------------------------------||------------------------------------------------|
|------------------------------------------------||13-13-13-13-13-13-13-13-------------11-11-11-11-||12-12-12-12-12-12-12-12-10-10-10-10-12-12-12-12-||------------------------10-10-10-10-------------||------------------------------------------------||------------------------------------------------|
X1 Riff A (0:56-1:02)|--------------------------------|-----------------------||----------------8-8-8-8-6-6-----|-------------6/13---11-||--------7-7-7-7-------------7-7-|---------7-7-5/12---10-||5-5-5-5-------------------------|5-5-5-5----------------||--------------------------------|-----------------------||--------------------------------|-----------------------|
X1 Verse (1:03-1:16) X2 Pre-Chorus (1:17-1:31) X2 Chorus (1:32-1:44)
X1 Riff B (1:45-1:58)|--------------------------------|------------------------------------||----------------8-8-8-8-5-5-----|----------------8-8-8-8-------------||--------7-7-7-7-7-7-7-7-5-5-7-7-|--------7-7-7-7-7-7-7-7/17-17-17-15-||5-5-5-5-8-8-8-8-------------8-8-|5-5-5-5-8-8-8-8---------17-17-17-15-||--------------------------------|------------------------------------||--------------------------------|------------------------------------|
|--------------------------------|---------------------||----------------8-8-8-8-5-5-----|------------6/13--11-||--------7-7-7-7-7-7-7-7-5-5-7-7-|--------7-7-5/12--10-||5-5-5-5-8-8-8-8-------------8-8-|5-5-5-5-8-8----------||--------------------------------|---------------------||--------------------------------|---------------------|
Interlude (1:59-2:31)|--------------------------------------||8-------------------------11----------||7----------------5/12-----10----------||x-------------------------------------|(X1)|5-------------------------------------||--------------------------------------|
|8-------------------------------------||8-------------------------11----------||5----------------5/12-----10----------||--------------------------------------| (X2)|--------------------------------------||--------------------------------------|
|8-------------------------------------||8-------------------------11--------8-||5----------------5/12-----10---10---7-||-------------------------------10-----| (X1)|--------------------------------------||--------------------------------------|
I havent tabbed guitar ones last part because theres too much distortion...feel free to send it to me I you know it so I can add it to the tab: Trevor__rice@hotmail.com (2 underscores, not 1) \\\\\\\\\\\\\\\\\\\\\\\\\\\\\\\/////////////////////////////////////// \\\\\\\\\\\\\\\\\\\\\\\\\\Guitar 2////////////////////////////////// \\\\\\\\\\\\\\\\\\\\\\\\\\\\\/////////////////////////////////////
X2 Verse (0:00-0:27)|-----------------------------|----------------------------||-----------------------------|----------------------------||---------------------5--5-5--|---------------------3--3-3-||5--5--5-5-5-5--5--5--5--5-5--|5--5--5-5-5-5--5--5--3--3-3-||5--5--5-5-5-5--5--5--3--3-3--|5--5--5-5-5-5--5--5--1--1-1-||3--3--3-3-3-3--3--3----------|3--3--3-3-3-3--3--3---------|
|-----------------------------|-----------------------||-----------------------------|-----------------------||---------------------5--5-5--|----------------3------||5--5--5-5-5-5--5--5--5--5-5--|5--5--5-5-5-5---3----3-||5--5--5-5-5-5--5--5--3--3-3--|5--5--5-5-5-5---1----3-||3--3--3-3-3-3--3--3----------|3--3--3-3-3-3--------1-|
X2 Pre-Chorus (0:28-0:41)|--------------------------------|------------------------------||--------------------------------|------------------------------||--------------5-5-5-x-x-3-3-x-x-|--------------5---x-x-3-x-x-x-||5-5-x-x-x-x-x-5-5-5-x-x-3-3-x-x-|5-5-x-x-x-x-x-5---x-x-3-x-x-x-||5-5-x-x-x-x-x-3-3-3-x-x-1-1-x-x-|5-5-x-x-x-x-x-3---x-x-1-x-x-x-||3-3-x-x-x-x-x-------------------|3-3-x-x-x-x-x-----------------|
X2 Chorus (0:42-0:55)|----------------------------------------------------------------||----------------------------------------------------------------||----------------3-3-3-3-3-3-3-3-5-5-5-5-5-5-5-5---------3-3-3-3-||5-5-5-5-5-5-5-5-3-3-3-3-3-3-3-3-5-5-5-5-5-5-5-5-3-3-3-3-3-3-3-3-||5-5-5-5-5-5-5-5-1-1-1-1-1-1-1-1-3-3-3-3-3-3-3-3-3-3-3-3-1-1-1-1-||3-3-3-3-3-3-3-3---------------------------------1-1-1-1---------|
X1 Riff A (0:56-1:02)|-----------------------------|---------------------||-----------------------------|---------------------||---------------------5--5-5--|---------------3-----||5--5--5-5-5-5--5--5--5--5-5--|5--5--5-5-5-5--3---3-||5--5--5-5-5-5--5--5--3--3-3--|5--5--5-5-5-5--1---3-||3--3--3-3-3-3--3--3----------|3--3--3-3-3-3------1-|
X1 Verse (1:03-1:16) X2 Pre-Chorus(1:17-1:31) X2 Chorus (1:32-1:44) X1 Verse(1:45-1:58)
Interlude (1:59-2:31)|-----------------------------------------||-----------------------------------------||-----------------------------------------||5--3--5--x-x-5--3--5--x-x-5------3-------| (X3)|5--3--5--x-x-5--3--5--x-x-5------3-------||3--1--3--x-x-3--1--3--x-x-3------1-------|
|-----------------------------------------||-----------------------------------------||------------------------------------3----||5--3--5--x-x-5--3--5--x-x-5------3--1--5-| (X1)|5--3--5--x-x-5--3--5--x-x-5------3--1--5-||3--1--3--x-x-3--1--3--x-x-3------1-----3-|
you can play this next part either way, theyre the exact same power chord, just played differently... Play whatever feels more comfortable for you
(2:41-3:17)|--------------------------------||--------------------------------||----3-3-----3-3---------5--5-5--||5-5-3-3-5-5-3-3-5-5-5-5-5--5-5--| (x12)|5-5-1-1-5-5-1-1-5-5-5-5-3--3-3--||3-3-----3-3-----3-3-3-3---------|
OR...
|--------------------------------||--------------------------------||------------------------5--5-5--||5-5-8-8-5-5-8-8-5-5-5-5-5--5-5--| (x12)|5-5-8-8-5-5-8-8-5-5-5-5-3--3-3--||3-3-6-6-3-3-6-6-3-3-3-3---------|
On the 12th time, only play the 355 once at the end rather than playing it 3 times
Please rate this tab:
x1.0