Cake - Sad Songs And Waltzes tab

> Song      = Sad Songs and waltzes
> Band      = Cake
> Album     = Fashion Nugget
> Tabbed by = Jason LeBlanc [ Ibanez ]

[ p ] = [ pull off ]

This is my own version of the song. Please note that it might not be perfect. Nobody's perfect!!!

|-------------------------------------||-------------------------------------||-------------------------------------||-------------------------------0-2---||-----4-4---5-5---4-4---4-4---4-------||---5-----0-----5-----5-----5---------|
|-------------------------------------||-------------------------------------||-------------------------------------||-----4-----5-4-2-0------------0-2----||---5-----5------------4-4---4--------||--------------------5-----5----------|
|-------------------------------------||-------------------------------------||-------------------------------------||-----4-----5-4-2-0----0-2-0----2-0---||---5-----5----------4----------------||-------------------------------------|
|-------------------------------------||--------------------------------2----||------------------------------2------||-------0--------------------2--------||---4-4---4-2-0---0-2-0--3-4----------||---------------4---------------------|
|-------------------------------------||-------------------------------------||-------------------------------------||-------------------------------0-2---||-----4-4---5-5---4-4---4-4---4-------||---5-----0-----5-----5-----5---------|
|-------------------------------------||-------------------------------------||-------------------------------------||-----4-----5-4-2-0------------0-2----||---5-----5------------4-4---4--------||--------------------5-----5----------|
|-------------------------------------||-------------------------------------||-------------------------------------||-----4-----5-4-2-0----0-2-0----2-0---||---5-----5----------4----------------||-------------------------------------|
|-------------------------------------||-------------------------------------||-------------------------------------| |-------0----------------4-2----------||---4-4---4-2-0---0-2-0------4-0------||---------------4---------------------|
|-------------------------------------||-------------------------------------||-------------------------------------||-------------------------------0-2---||-----4-4---5-5---4-4---4-4---4-------||---5-----0-----5-----5-----5---------|
|-------------------------------------||-------------------------------------||-------------------------------------||-----4-----5-4-2-0------------0-2----||---5-----5------------4-4---4--------||--------------------5-----5----------|
|-------------------------------------||-------------------------------------||-------------------------------------||-----4-----5-4-2-0----0-2-0----2-0---||---5-----5----------4----------------||-------------------------------------|
|-------------------------------------||-------------------------------------||-------------------------------------| |-------0----------------4-2----------||---4-4---4-2-0---0-2-0------4-0------||---------------4---------------------|
|-------------------------------------||-------------------------------------||-------------------------------------||-------------------------------------||-----5-5---5-5---4-4-5-4-2-0---------||---0-----4-----5---------------------|
|-------------------------------------||-------------------------------------||-------------------------------------||-----1-1-2-1-2-1-2-2-0---------------||-----------------------4-2-----------||---0---------------------------------|
|-------------------------------------||-------------------------------------||-------------------------------------||-------------0-2---4---5-4-2-0-------||-----4-4---4-----5---5---------------||---5-----5---------------------------|
|-------------------------------------||-------------------------------------||-------------------------------------||-----------------------4-2-----------||---4-4-5-4-2-0---0-2-0-----4-0-------||---------------4---------------------|
|-------------------------------------||-------------------------2-----------||-----------------------2-------------||---------------------2---------------||-----5-5---5-5-0-3-4-----------------||---0-----4---------------------------|
|-----------------------------------------------||-----------------------------------------------||---------------4-6-3-5-2-4-1-3-0-2---1---------||-----------------------------------4---2p0-----||-----5-5---5-5---------------------------------||---0-----4-------------------------------------|
|-------------------------------------||-------------------------2-----------||-----------------------2-------------||---------------------2---------------||-----5-5---5-5-0-3-4-----------------||---0-----4---------------------------|
|-------------------------------------||-------------------------2-----------||-----------------------2-------------||---------------------2---------------||-----5-5---5-5-0-3-4-----------------||---0-----4---------------------------|
|-------------------------------------||-------------------------------------||-------------------------------------||-------------------------------------||-----5-5---5-5---4-4-5-4-2-0---------||---0-----4-----5---------------------|
|-------------------------------------||-------------------------------------||-------------------------------------||-----1-1-2-1-2-1-2-2-0---------------||-----------------------4-2-----------||---0---------------------------------|
|-------------------------------------||-------------------------------------||-------------------------------------||-------------0-2---4---5-4-2-0-------||-----4-4---4-----5---5---------------||---5-----5---------------------------|
|-------------------------------------||-------------------------------------||-------------------------------------||-----------------------4-2-----------||---4-4-5-4-2-0---0-2-0-----4-0-------||---------------4---------------------|
|-------------------------------------||-------------------------------------||-------------------------------------||-------------------------------0-2---||-----4-4---5-5---4-4---4-4---4-------||---5-----0-----5-----5-----5---------|
|-------------------------------------||-------------------------------------||-------------------------------------||-----4-----5-4-2-0------------0-2----||---5-----5------------4-4---4--------||--------------------5-----5----------|
|-------------------------------------||-------------------------------------||-------------------------------------||-----4-----5-4-2-0----0-2-0----2-0---||---5-----5----------4----------------||-------------------------------------|
|-------------------------------------||--------------------------------2----||------------------------------2------||-------0--------------------2--------||---4-4---4-2-0---0-2-0--3-4----------||---------------4---------------------|
[ Please give credit to Jason LeBlanc while using tab ] - thanks
Tap to rate this tab
 
# A B C D E F G H I J K L M N O P Q R S T U V W X Y Z