Calabrese - Voices Of The Dead tab version 2

Cancion: Voices of the Dead
Grupo: Calabrese
Album: The Travelling Vampire Show

Tabulado Por: Alejandro Calero (misfits_ale@hotmail.com)


Intro: 

|-------------------------------------------------------------| |-------------------------------------------------------------| |--7--7-7-7-------------6-7--7-7-7-----------10-10-10-9-9-9---| |--x--x-x-x---7-8-8-----x-x--x-x-x---7-8-8---x--x--x--x-x-x---| |--5--5-5-5---7-8-8-----4-5--5-5-5---7-8-8---8--8--8--7-7-7---| |-------------5-6-6------------------5-6-6--------------------|
|--------------------------------------------| |--------------------------------------------| |--7--7-7-7-----------------------8-8-8-8-8--| |--x--x-x-x---7-8-8-8-----5-5-5---6-6-6-6-6--| |--5--5-5-5---7-8-8-8-----5-5-5--------------| |-------------5-6-6-6-----3-3-3--------------|
Verse:
|----------------------------------------------| |----------------------------------------------| |--7--7-7-7-7-7-7-7----------------------------| |--7--7-7-7-7-7-7-7---8--8-8-8-8---5-5---7-7---| x3|--5--5-5-5-5-5-5-5---8--8-8-8-8---5-5---7-7---| |---------------------6--6-6-6-6---3-3---5-5---| PM ............. .......
|-------------------------------------------------------------||-------------------------------------------------------------||--7--7-7-7-7-7-7-7-------------------------------------------| |--7--7-7-7-7-7-7-7---8--8-8-8-8-8---5--5-5-5-5-5---7-7-7-7---||--5--5-5-5-5-5-5-5---8--8-8-8-8-8---5--5-5-5-5-5---7-7-7-7---||---------------------6--6-6-6-6-6---3--3-3-3-3-3---5-5-5-5---|PM .............
|------------------||------------------||------------------||--7-7-7-7-7-7-7---||--7-7-7-7-7-7-7---||--5-5-5-5-5-5-5---|PM .............
Chorus:
|--------------------------------------------------| |--------------------------------------------------| |--7-7-7-7---10-10-10-10-------------10-10---------| |--7-7-7-7---10-10-10-10---8-8-8-8---10-10---7-7---| |--5-5-5-5----8--8--8--8---8-8-8-8---8--8----7-7---| |--------------------------6-6-6-6-----------5-5---|
|----------------------------------------------||----------------------------------------------||--7-7-7-7-------------10-10-10-10-------------||--7-7-7-7---8-8-8-8----x--x--x--x---7-7-7-7---||--5-5-5-5---8-8-8-8----8--8--8--8---7-7-7-7---||------------6-6-6-6-----------------5-5-5-5---|
|----------------------------------------------------------------------| |----------------------------------------------------------------------| |--7-7-7-7---5-5-5-5------------------7-7-7-7---5-5-5-5----------------| |--7-7-7-7---5-5-5-5--8-8-8-8-8-8-8---7-7-7-7---5-5-5-5---7--7-7-7-7---| |--5-5-5-5---3-3-3-3--8-8-8-8-8-8-8---5-5-5-5---3-3-3-3---7--7-7-7-7---| |---------------------6-6-6-6-6-6-6-----------------------5--5-5-5-5---|
Intro. Verse 2:
|----------------------------------------------| |----------------------------------------------| |--7--7-7-7-7-7-7-7----------------------------| |--7--7-7-7-7-7-7-7---8--8-8-8-8---5-5---7-7---| x2|--5--5-5-5-5-5-5-5---8--8-8-8-8---5-5---7-7---| |---------------------6--6-6-6-6---3-3---5-5---| PM ............. .......
|------------------------------------------------||------------------------------------------------||--7--7-7-7-7-7-7-7------------------------------| |--x--x-x-x-x-x-x-x---8--8-8-8-8-8---5-5---7-7---| |--5--5-5-5-5-5-5-5---8--8-8-8-8-8---5-5---7-7---||---------------------6--6-6-6-6-6---3-3---5-5---|PM .........
|-------------------------------------------------------------||-------------------------------------------------------------||--7--7-7-7-7-7-7-7-------------------------------------------| |--x--x-x-x-x-x-x-x---8--8-8-8-8-8---5--5-5-5-5-5---7-7-7-7---| |--5--5-5-5-5-5-5-5---8--8-8-8-8-8---5--5-5-5-5-5---7-7-7-7---||---------------------6--6-6-6-6-6---3--3-3-3-3-3---5-5-5-5---|PM ......... .........
|------------------||------------------||------------------||--7-7-7-7-7-7-7---||--7-7-7-7-7-7-7---||--5-5-5-5-5-5-5---|PM .............
Chorus Break:
|-------------------------------------------------------------| |-------------------------------------------------------------| |--7--7-7-7-7-7-7---9-9-9---10-10-10---6--6-6-6-6-6-6-6-6-6---| |--x--x-x-x-x-x-x---x-x-x----x--x--x---x--x-x-x-x-x-x-x-x-x---| |--5--5-5-5-5-5-5---7-7-7----8--8--8---4--4-4-4-4-4-4-4-4-4---| |-------------------------------------------------------------|
|--------------------------------------------------------------| |--------------------------------------------------------------| |--7--7-7-7-7-7-7---9-9-9---10-10-10---14--14-14-14-14-14-14---| |--x--x-x-x-x-x-x---x-x-x----x--x--x----x---x--x--x--x--x--x---||--5--5-5-5-5-5-5---7-7-7----8--8--8---12--12-12-12-12-12-12---| |--------------------------------------------------------------|
|---------------------------------------------------------||---------------------------------------------------------||--14-15-15-15-15-15-15---14---12--10---9---9-9-9-9-9-9---||---x--x--x--x--x--x--x----x----x---x---x---x-x-x-x-x-x---||--12-13-13-13-13-13-13---12---10---8---7---7-7-7-7-7-7---||---------------------------------------------------------|
|-----------------------------------------------------------||-----------------------------------------------------------||--14-15-15-15-15-15-15---14-15-15-17---17-17-17-17-17-17---||---x--x--x--x--x--x--x----x--x--x--x----x--x--x--x--x--x---||--12-13-13-13-13-13-13---12-13-13-15---15-15-15-15-15-15---||-----------------------------------------------------------|
|---------------------------| |---------------------------| |--18---18-18-18-18-18-18---| |---x----x--x--x--x--x--x---| |--16---16-16-16-16-16-16---| |---------------------------|
|-------------------------------------------------|------||-------------------------------------------------|------||--7-7-7-7-7-7-7-7---7-7-6-6-6-6-6-5-5-5-5-5------|------||--7-7-7-7-7-7-7-7---x-x-x-x-x-x-x-x-x-x-x-x---x2-|--7---||--5-5-5-5-5-5-5-5---5-5-4-4-4-4-4-3-3-3-3-3------|--7---||--5-5-5-5-5-5-5-5--------------------------------|--5---|
Chorus Intro
Tap to rate this tab
 
# A B C D E F G H I J K L M N O P Q R S T U V W X Y Z