Calabrese - Shrunken Head Kids tab

Calabrese - Shrunken Head Kids

By: skyturnedred@gmail.com

Tuning: Standard EADGBe

. = Palm-mute



INTRO:

|----------------------||----------------------||-----------6666-5555--| x2|-3333-6666-6666-5555--||-3333-6666-4444-3333--||-1111-4444------------|
VERSE1:
|----------------------||----------------------||-----------6666-5555--| x4|-3333-6666-6666-5555--||-3333-6666-4444-3333--||-1111-4444------------|
|----------------------||----------------------||----------------------||-----------6666-5555--||-3333-6666-4444-3333--||-1111-4444------------| .... .... .... ....
|----------------------||----------------------||-----------6666-5555--||-----------6666-5555--||-3333-6666-4444-3333--||-1111-4444------------| .... ....
CHORUS:
|----------------------||----------------------||-----------6666-5555--| x4|-3333-6666-6666-5555--||-3333-6666-4444-3333--||-1111-4444------------|
|-------------------||-------------------||-33333333-66666666-| x4|-33333333-66666666-||-11111111-44444444-||-------------------|
|------------------||------------------||-5555555555555555-||-5555555555555555-||-3333333333333333-||------------------|
VERSE2:
|----------------------||----------------------||----------------------| x5|-----------6666-5555--| |-3333-6666-4444-3333--||-1111-4444------------| .... .... .... ....
|----------------------||----------------------||-----------6666-5555--||-----------6666-5555--||-3333-6666-4444-3333--||-1111-4444------------| .... ....
Repeat CHORUS INTERLUDE:
|------------------------------------||------------------------------------||----------66666666-5555555555555555-||-6-666666---------------------------||----------44444444-3333333333333333-||-4-444444---------------------------|
|-------------------------------------||-------------------------------------||----------6566666/8-5555555/66666666-||-6-666666----------------------------||----------4-44444/6-3333333/44444444-||-4-444444----------------------------|
|---------------------------------------||---------------------------------------||----------6566666/8-5555555/666x6x6x66-||-6-666666------------------------------||----------4444444/6-3333333/444x4x4x44-||-4-444444------------------------------|
|-------------------------------------||-------------------------------------||----------6-66666/8-5555666688886666-||-6-666666----------------------------||----------4-44444/6-3333444466664444-||-4-444444----------------------------|
CHORUS2:
|----------------------||----------------------||-----------6666-5555--| x6|-3333-6666-6666-5555--||-3333-6666-4444-3333--||-1111-4444------------|
|-------------------||-------------------||-33333333-66666666-| x4|-33333333-66666666-||-11111111-44444444-||-------------------|
|------------------||------------------||-555555555555x666-| x3|-555555555555x666-||-333333333333x444-||------------------|
|---------------------||---------------------||-555566663333--------||-555566663333-6-2-3--||-333344441111-6-2-3--||--------------4-0-1--|
Tap to rate this tab
 
# A B C D E F G H I J K L M N O P Q R S T U V W X Y Z