Caliban – Arena Of Concealment tab

                        Arena of Concealment

                     Caliban Vs. Heaven Shall Burn
                       The Split Programm pt. 2


Tabbed by: mbraz
Tuning: Drop C (from low to high: C,G,C,F,A,D)


Intro

guitar 1|------------------------||------------------------||------------------------||-----------<2>-----0~~--||-0-0-0--0-------0--0~~--||-0-0-0--0-------0--0~~--|| . . . . .
| |
|guitar 2|------------------------||------------------------||------------------------||-----------<5>-----0~~--||-0-0-0--0-------0--0~~--||-0-0-0--0-------0--0~~--| . . . . .
Intro pt.2both guitars|------------------------------------------------------------||------------------------------------------------------------||------------------------------------------------------------||------------------------------------------------------------||-------5h6------6h8-----8h9-----------5h6------6h8-----8h9--||-00000-----0000-----000---------00000-----0000-----000------| ..... .... ... ..... .... ... The Ímage of the world I live in born into
|------------------------------------------------------------||------------------------------------------------------------||------------------------------------------------------------||--------------------------------------------------2/5/4-----||-------5h6------6h8-----8h9-----------5h6--0-0-0--3/6/5-----||-00000-----0000-----000---------00000------0-0-0------------| ..... .... ... ..... . . . to fall into oblivion is one hugh arena of illusion and
|------------------------------------------------------------||------------------------------------------------------------||------------------------------------------------------------||------------------------------------------------------------||-------5h6------6h8-----8h9-----------5h6------6h8-----8h9--||-00000-----0000-----000---------00000-----0000-----000------| ..... .... ... ..... .... ... deceit!! Nothing´s real!!
|------------------------------------------------------------||------------------------------------------------------------||------------------------------------------------------------||--------------------------------------------------2/5/4-----||-------5h6------6h8-----8h9-----------5h6--0-0-0--3/6/5-----||-00000-----0000-----000---------00000------0-0-0------------| ..... .... ... ..... . . . Nothing!!
Main Riff|------------------------------------------------------------||------------------------------------------------------------||------------------------------------------------------------||------------------------------------------------------------||-------5h6------6h8-----8h9-----------5h6------6h8-----8h9--||-00000-----0000-----000---------00000-----0000-----000------| ..... .... ... ..... .... ...
|------------------------------------------------------------||------------------------------------------------------------||------------------------------------------------------------||--------------------------------------------------2/5/4-----||-------5h6------6h8-----8h9-----------5h6--0-0-0--3/6/5-----||-00000-----0000-----000---------00000------0-0-0------------| ..... .... ... ..... . . .
|------------------------------------------------------------||------------------------------------------------------------||------------------------------------------------------------||------------------------------------------------------------||-------5h6------6h8-----8h9-----------5h6------6h8-----8h9--||-00000-----0000-----000---------00000-----0000-----000------| ..... .... ... ..... .... ...
|------------------------------------------------------------||------------------------------------------------------------||------------------------------------------------------------||--------------------------------------------------2/5/4-----||-------5h6------6h8-----8h9-----------5h6--0-0-0--3/6/5-----||-00000-----0000-----000---------00000------0-0-0------------| ..... .... ... ..... . . .
Verse
guitar 1|-------------------------------------------||-------------------------------------------||-------------------------------------------||--------------------------22222-33333-<2>--||-00-11-44-33-00-11-44-33--00000-11111------||-00-11-44-33-00-11-44-33-------------------|| .. .. .. .. .. .. .. ..
| |
|guitar 2|-------------------------------------------||-------------------------------------------||-------------------------------------------||--------------------------77777-88888-<5>--||-00-11-44-33-00-11-44-33--55555-66666------||-00-11-44-33-00-11-44-33-------------------| .. .. .. .. .. .. .. .. Curtain call and the show starts !!
|-------------------------------------------||-------------------------------------------||-------------------------------------------||--------------------------22222-33333-<2>--||-00-11-44-33-00-11-44-33--00000-11111------||-00-11-44-33-00-11-44-33-------------------|| .. .. .. .. .. .. .. ..
| | |
|-------------------------------------------||-------------------------------------------||-------------------------------------------||--------------------------77777-88888-<5>--||-00-11-44-33-00-11-44-33--55555-66666------||-00-11-44-33-00-11-44-33-------------------| .. .. .. .. .. .. .. .. Commonness and self-laceration
|-------------------------------------------||-------------------------------------------||-------------------------------------------||--------------------------22222-33333-<2>--||-00-11-44-33-00-11-44-33--00000-11111------||-00-11-44-33-00-11-44-33-------------------|| .. .. .. .. .. .. .. ..
| | |
|-------------------------------------------||-------------------------------------------||-------------------------------------------||--------------------------77777-88888-<5>--||-00-11-44-33-00-11-44-33--55555-66666------||-00-11-44-33-00-11-44-33-------------------| .. .. .. .. .. .. .. .. Against the uncreasing hope of redemption
|-------------------------------------------||-------------------------------------------||-------------------------------------------||--------------------------22222-33333-<2>--||-00-11-44-33-00-11-44-33--00000-11111------||-00-11-44-33-00-11-44-33-------------------|| .. .. .. .. .. .. .. ..
| | |
|-------------------------------------------||-------------------------------------------||-------------------------------------------||--------------------------77777-88888-<5>--||-00-11-44-33-00-11-44-33--55555-66666------||-00-11-44-33-00-11-44-33-------------------| .. .. .. .. .. .. .. .. Clowns - The masters of disguise!!
Pre Chorus
guitar 1|-------------------------------------------------||-------------------------------------------------||-------------------------------------------------||--------------5~~-2/5/4---------------2~~-2/5/4--||-0~~----------6~~-3/6/5--0~~----------3~~-3/6/5--||-0~~-00-00-00------------0~~-00-00-00------------|| .. .. .. .. .. ..
| |
|guitar 2|------------------------------------------------------||------------------------------------------------------||------------------------------------------------------||------------------------------------------------------||-0~~----------11~~-8/11/10--0~~----------8~~-8/11/10--||-0~~-00-00-00---------------0~~-00-00-00--------------| .. .. .. .. .. .. Are man`s prototype my fear of the future increases?
|-------------------------------------------------||-------------------------------------------------||-------------------------------------------------||--------------5~~-2/5/4---------------2~~-2/5/4--||-0~~----------6~~-3/6/5--0~~----------3~~-3/6/5--||-0~~-00-00-00------------0~~-00-00-00------------|| .. .. .. .. .. ..
| | |
|------------------------------------------------------||------------------------------------------------------||------------------------------------------------------||------------------------------------------------------||-0~~----------11~~-8/11/10--0~~----------8~~-8/11/10--||-0~~-00-00-00---------------0~~-00-00-00--------------| .. .. .. .. .. .. Are man`s prototype my fear of the future increases?
Chorus
guitar 1|----------------------------------------------------||----------------------------------------------------||----------------------------------------------------||-----333-222-----333-222-------333-222-----222-333--||-000---------000------------------------------------||---------------------------333---------222----------|| ... ... ... ...
| |
|guitar 2|----------------------------------------------------||----------------------------------------------------||----------------------------------------------------||----------------****Break****-----------------------||----------------------------------------------------||----------------------------------------------------|
|----------------------------------------------------||----------------------------------------------------||----------------------------------------------------||-----333-222-----333-222-------333-222-----222-333--||-000---------000------------------------------------||---------------------------333---------222----------|| ... ... ... ...
| | |
|----------------------------------------------------||----------------------------------------------------||----------------------------------------------------||-----888-777-----888-777-------888-777-----777-888--||-555---------555------------------------------------||---------------------------888---------777----------| ... ... ... ...
|----------------------------------------------------||----------------------------------------------------||----------------------------------------------------||-----333-222-----333-222-------333-222-----222-333--||-000---------000------------------------------------||---------------------------333---------222----------|| ... ... ... ...
| | |
|----------------------------------------------------||----------------------------------------------------||----------------------------------------------------||-----888-777-----888-777-------888-777-----777-888--||-555---------555------------------------------------||---------------------------888---------777----------| ... ... ... ... This arena is crowded with clowns
|----------------------------------------------------||----------------------------------------------------||----------------------------------------------------||-----333-222-----333-222-------333-222-----222-333--||-000---------000------------------------------------||---------------------------333---------222----------|| ... ... ... ...
| | |
|----------------------------------------------------||----------------------------------------------------||----------------------------------------------------||-----888-777-----888-777-------888-777-----777-888--||-555---------555------------------------------------||---------------------------888---------777----------| ... ... ... ... Curtain call and the show starts
|----------------------------------------------------||----------------------------------------------------||----------------------------------------------------||-----333-222-----333-222-------333-222-----222-333--||-000---------000------------------------------------||---------------------------333---------222----------|| ... ... ... ...
| | |
|----------------------------------------------------||----------------------------------------------------||----------------------------------------------------||-----888-777-----888-777-------888-777-----777-888--||-555---------555------------------------------------||---------------------------888---------777----------| ... ... ... ... Just one tear releases a violent river!!
Verse 2
guitar 1|-------------------------------------------||-------------------------------------------||-------------------------------------------||--------------------------22222-33333-<2>--||-00-11-44-33-00-11-44-33--00000-11111------||-00-11-44-33-00-11-44-33-------------------|| .. .. .. .. .. .. .. ..
| |
|guitar 2|-------------------------------------------||-------------------------------------------||-------------------------------------------||--------------------------77777-88888-<5>--||-00-11-44-33-00-11-44-33--55555-66666------||-00-11-44-33-00-11-44-33-------------------| .. .. .. .. .. .. .. .. Curtain call and the show starts !!
|-------------------------------------------||-------------------------------------------||-------------------------------------------||--------------------------22222-33333-<2>--||-00-11-44-33-00-11-44-33--00000-11111------||-00-11-44-33-00-11-44-33-------------------|| .. .. .. .. .. .. .. ..
| | |
|-------------------------------------------||-------------------------------------------||-------------------------------------------||--------------------------77777-88888-<5>--||-00-11-44-33-00-11-44-33--55555-66666------||-00-11-44-33-00-11-44-33-------------------| .. .. .. .. .. .. .. .. Commonness and self-laceration
|-------------------------------------------||-------------------------------------------||-------------------------------------------||--------------------------22222-33333-<2>--||-00-11-44-33-00-11-44-33--00000-11111------||-00-11-44-33-00-11-44-33-------------------|| .. .. .. .. .. .. .. ..
| | |
|-------------------------------------------||-------------------------------------------||-------------------------------------------||--------------------------77777-88888-<5>--||-00-11-44-33-00-11-44-33--55555-66666------||-00-11-44-33-00-11-44-33-------------------| .. .. .. .. .. .. .. .. Against the uncreasing hope of redemption
|-------------------------------------------||-------------------------------------------||-------------------------------------------||--------------------------22222-33333-<2>--||-00-11-44-33-00-11-44-33--00000-11111------||-00-11-44-33-00-11-44-33-------------------|| .. .. .. .. .. .. .. ..
| | |
|-------------------------------------------||-------------------------------------------||-------------------------------------------||--------------------------77777-88888-<5>--||-00-11-44-33-00-11-44-33--55555-66666------||-00-11-44-33-00-11-44-33-------------------| .. .. .. .. .. .. .. .. Clowns - The masters of disguise!!
Pre Chorus 2
guitar 1|-------------------------------------------------||-------------------------------------------------||-------------------------------------------------||--------------5~~-2/5/4---------------2~~-2/5/4--||-0~~----------6~~-3/6/5--0~~----------3~~-3/6/5--||-0~~-00-00-00------------0~~-00-00-00------------|| .. .. .. .. .. ..
| |
|guitar 2|------------------------------------------------------||------------------------------------------------------||------------------------------------------------------||------------------------------------------------------||-0~~----------11~~-8/11/10--0~~----------8~~-8/11/10--||-0~~-00-00-00---------------0~~-00-00-00--------------| .. .. .. .. .. .. Are man`s prototype my fear of the future increases?
|-------------------------------------------------||-------------------------------------------------||-------------------------------------------------||--------------5~~-2/5/4---------------2~~-2/5/4--||-0~~----------6~~-3/6/5--0~~----------3~~-3/6/5--||-0~~-00-00-00------------0~~-00-00-00------------|| .. .. .. .. .. ..
| | |
|------------------------------------------------------||------------------------------------------------------||------------------------------------------------------||------------------------------------------------------||-0~~----------11~~-8/11/10--0~~----------8~~-8/11/10--||-0~~-00-00-00---------------0~~-00-00-00--------------| .. .. .. .. .. .. Are man`s prototype my fear of the future increases?
Ending
|------------------------------------------------------------||------------------------------------------------------------||------------------------------------------------------------||------------------------------------------------------------||-------5h6------6h8-----8h9-----------5h6------6h8-----8h9--||-00000-----0000-----000---------00000-----0000-----000------| ..... .... ... ..... .... ...
|------------------------------------------------------------||------------------------------------------------------------||------------------------------------------------------------||--------------------------------------------------2/5/4-----||-------5h6------6h8-----8h9-----------5h6--0-0-0--3/6/5-----||-00000-----0000-----000---------00000------0-0-0------------| ..... .... ... ..... . . .
|-------------------------------------------------------------------||-------------------------------------------------------------------||-------------------------------------------------------------------||-------------------------------------------------------------------||-0-0-0-0-5h6-0-0-0-0-6h8-0-0-8h9--0-0-0-0-5h6-0-0-0-0-6h8-0-0-8h9--||-0-0-0-0-----0-0-0-0-----0-0------0-0-0-0-----0-0-0-0-----0-0------| . . . . . . . . . . . . . . . . . . . .
|--------------------------------------------------------------||--------------------------------------------------------------||--------------------------------------------------------------||-----------------------------------------------------2/5/4-0--||-0-0-0-0-5h6-0-0-0-0-6h8-0-0-8h9--0-0-0-0-5h6-0-0-0--3/6/5-0--||-0-0-0-0-----0-0-0-0-----0-0------0-0-0-0-----0-0-0--------0--| . . . . . . . . . . . . . . . . .
Please rate this tab:
x1.0