Cancer Bats - Butterscotch tab

Cancer Bats
Butterscotch
Drop C (Whole step down and drop D)
Donít have the breakdown yet but Iíll post it when I figure it outÖunless anyone has any 
what it may be

Legend:
*=palm mute
/=slide
~=let ring
x=mute
v=vibrato
h=hammer on
p=pull off

Intro|-----------------------------| |-----------------------------||-----------------------------| |-----------------------------||-----------------------------| |-----------------------------||-3-3-3-6-6-6-1-1-1-1-1-1-1-1-| x2 |-3-3-3-6-6-6-1-1-1-1-1-1-1-1-| x2|-3-3-3-6-6-6-1-1-1-1-1-1-1-1-| |-3-3-3-6-6-6-1-1-1-1-1-1-1-1-||-3-3-3-6-6-6-1-1-1-1-1-1-1-1-| |-3-3-3-6-6-6-1-1-1-1-1-1-1-1-|
* * * * * * * * * * * * * *|-0-0-||-0-0-||-0-0-||-----||-----||-----|
Verse 1|-------------------------------------------------------------------||-------------------------------------------------------------------||-------------------------------------------------------------------||-3-3-3--6-6-6--1-1-1-1-1-1-1-1--3-3-3--6-6-6--1-1-1-1-1-1-1-1------||-3-3-3--6-6-6--1-1-1-1-1-1-1-1--3-3-3--6-6-6--1-1-1-1-1-1-1-1------||-3-3-3--6-6-6--1-1-1-1-1-1-1-1--3-3-3--6-6-6--1-1-1-1-1-1-1-1-/14v-|
|----------------------------------------------------------||----------------------------------------------------------||----------------------------------------------------------||-3-3-3--6-6-6--1-1-1-1-1-1-1-1--3-3-3-6-6-6-1-1-1-1-1-1-1-||-3-3-3--6-6-6--1-1-1-1-1-1-1-1--3-3-3-6-6-6-1-1-1-1-1-1-1-||-3-3-3--6-6-6--1-1-1-1-1-1-1-1--3-3-3-6-6-6-1-1-1-1-1-1-1-|
|--------------------------------------------| |-0-0---------------||--------------------------------------------| |-0-0---------------||--------------------------------------------| |-0-0---------------||-3x3-3x--6x6-6x--1x1x--3x3-3x--6x6-6x--1x1x-| x2 |-------------------||-3x3-3x--6x6-6x--1x1x--3x3-3x--6x6-6x--1x1x-| |-------------------||-3x3-3x--6x6-6x--1x1x--3x3-3x--6x6-6x--1x1x-| |-------------------||---------------------------------------------------------------------||---------------------------------------------------------------------||---------------------------------------------------------------------||-3-3-3--6-6-6--1-1-1-1-1-1-1-1--3-3-3--6-6-6--1-1-1-1-1-1-1-1--------||-3-3-3--6-6-6--1-1-1-1-1-1-1-1--3-3-3--6-6-6--1-1-1-1-1-1-1-1--------||-3-3-3--6-6-6--1-1-1-1-1-1-1-1--3-3-3--6-6-6--1-1-1-1-1-1-1-1-/14v---|
|----------------------------------------------------------||----------------------------------------------------------||----------------------------------------------------------||-3-3-3--6-6-6--1-1-1-1-1-1-1-1--3-3-3-6-6-6-1-1-1-1-1-1-1-||-3-3-3--6-6-6--1-1-1-1-1-1-1-1--3-3-3-6-6-6-1-1-1-1-1-1-1-||-3-3-3--6-6-6--1-1-1-1-1-1-1-1--3-3-3-6-6-6-1-1-1-1-1-1-1-|
|------------------------||------------------------||------------------------||-1/6-1/6-1/6--1-1-1-1-1-||-1/6-1/6-1/6--1-1-1-1-1-||-1/6-1/6-1/6--1-1-1-1-1-| * * * * *
Chorus|-----------------------||-------5/6---6\5---5/6-||-----------------------||-000------0-----0------||-000------0-----0------||-000------0-----0------|
*** * *|------------------------||------------------------||------------------------||-1/6-1/6-1/6--1-1-1-1-1-||-1/6-1/6-1/6--1-1-1-1-1-||-1/6-1/6-1/6--1-1-1-1-1-| * * * * *
|-----------------------------||-----------------------------||-----------------------------||-00-0h1-00-0h1-00-0h1-00-0h1-||-00-0h1-00-0h1-00-0h1-00-0h1-||-00-0h1-00-0h1-00-0h1-00-0h1-|
|------------------------||------------------------||------------------------||-1/6-1/6-1/6--1-1-1-1-1-||-1/6-1/6-1/6--1-1-1-1-1-||-1/6-1/6-1/6--1-1-1-1-1-| * * * * *
|---------------------------------||-------5--------5--------5-----5-||-------0--------0--------0-----0-||-0-0-----0-0------0-0-----0-0----||-0-0-----0-0------0-0-----0-0----||-0-0-----0-0------0-0-----0-0----| * * * * * * * *
|------------------------||------------------------||------------------------||-1/6-1/6-1/6--1-1-1-1-1-||-1/6-1/6-1/6--1-1-1-1-1-||-1/6-1/6-1/6--1-1-1-1-1-| * * * * *
|-----------------------------0-0-||-----------------------------0-0-||-----------------------------0-0-||-0-0-0-0-0-0-0-0-0-0-0-0-0-------||-0-0-0-0-0-0-0-0-0-0-0-0-0-------||-0-0-0-0-0-0-0-0-0-0-0-0-0-------|
Verse 2|------------------------------------------------------------------||------------------------------------------------------------------||------------------------------------------------------------------||-3-3-3--6-6-6--1-1-1-1-1-1-1-1--3-3-3--6-6-6--1-1-1-1-1-1-1-1-----||-3-3-3--6-6-6--1-1-1-1-1-1-1-1--3-3-3--6-6-6--1-1-1-1-1-1-1-1-----||-3-3-3--6-6-6--1-1-1-1-1-1-1-1--3-3-3--6-6-6--1-1-1-1-1-1-1-1/14v-|
|----------------------------------------------------------||----------------------------------------------------------||----------------------------------------------------------||-3-3-3--6-6-6--1-1-1-1-1-1-1-1--3-3-3-6-6-6-1-1-1-1-1-1-1-||-3-3-3--6-6-6--1-1-1-1-1-1-1-1--3-3-3-6-6-6-1-1-1-1-1-1-1-||-3-3-3--6-6-6--1-1-1-1-1-1-1-1--3-3-3-6-6-6-1-1-1-1-1-1-1-|
|------------------------||------------------------||------------------------||-1/6-1/6-1/6--1-1-1-1-1-||-1/6-1/6-1/6--1-1-1-1-1-||-1/6-1/6-1/6--1-1-1-1-1-| * * * * *Repeat Chorus
Interlude|----------------------------------------------------||----------------------------------------------------||----------------------------------------------------||-0-0-0-0-0-0-0-0-0-0-0-0-0-0-3h5~--3h5~--3h5~--3h5--||-0-0-0-0-0-0-0-0-0-0-0-0-0-0-3h5~--3h5~--3h5~--3h5--||-0-0-0-0-0-0-0-0-0-0-0-0-0-0-3h5~--3h5~--3h5~--3h5--|
|----------------------------------------------------||----------------------------------------------------||----------------------------------------------------||-0-0-0-0-0-0-0-0-0-0-0-0-0-0-3p1~--3p1~--3p1~--3p1--||-0-0-0-0-0-0-0-0-0-0-0-0-0-0-3p1~--3p1~--3p1~--3p1--||-0-0-0-0-0-0-0-0-0-0-0-0-0-0-3p1~--3p1~--3p1~--3p1--| Play whole Interlude twice
Breakdown (again I donít have this figured out yet but if anyone has any ideas I would appreciate them!) Verse3 Just play Verse 2 again Repeat Chorus Thatís all for now. Please rate!!!
Tap to rate this tab
 
# A B C D E F G H I J K L M N O P Q R S T U V W X Y Z