Cancer Bats - Hail Destroyer tab

CANCER BATS
HAIL DESTROYER 

Tabbed by : Pete_KC
Email : pete8---@hotmail.com

Tunning : Drop C (CGCFAD)

Intro/Main VerseD||--------------------------|--------------------------|A||--------------------------|--------------------------|F||--------------------------|--------------------------|C||-----3/-6-----7\-6-----6--|-----6--6-----6--6-----6--|3XG||--0--3/-6--0--7\-6--0--6--|--0--6--6--0--6--6--0--6--|C||--0--3/-6--0--7\-6--0--6--|--0--6--6--0--6--6--0--6--| - - - - - -
--------------------------|----------------------------|--------------------------|----------------------------|--------------------------|----------------------------|-----3/-6-----7\-6-----6--|-----6--6-----6--6----------|--0--3/-6--0--7\-6--0--6--|--0--6--6--0--6--6--0/12\0--|--0--3/-6--0--7\-6--0--6--|--0--6--6--0--6--6--0/12\0--| - - - - -
--------------------------|--------------------------|--------------------------|--------------------------|--------------------------|--------------------------|-----3/-6-----7\-6-----6--|-----6--6-----6--6-----6--|3X--0--3/-6--0--7\-6--0--6--|--0--6--6--0--6--6--0--6--|--0--3/-6--0--7\-6--0--6--|--0--6--6--0--6--6--0--6--| - - - - - -
--------------------------|--------------------------|--------------------------|--------------------------|--------------------------|--------------------------|-----3/-6-----7\-6-----6--|--------------6--6--6--6--|--0--3/-6--0--7\-6--0--6--|--6--6--6--6--6--6--6--6--|--0--3/-6--0--7\-6--0--6--|--6--6--6--6--6--6--6--6--| - - - - - - -
Verse 1 (00:25)|-------------------------|-----------------------|------------------------||-------------------------|-----------------------|------------------------||----8--8-----8--8-----9--|--9-----9--------------|------------------------||-------------------------|-----------------------|-----7\-6---------------||-0--6--6--0--6--6--0--7--|--7--0--7--------9\-0--|--0--7\-6--6--6--6--6--6||-0--------0--------0-----|-----0-----------9\-0--|--0--7\-6--6--6--6--6--6| - - - - - - - - - -
--------------------------|---------------------------|--------------------------|---------------------------|--------------------------|-----9--9-----9--9-----9\--|-----7\-6--------------6--|---------------------------|--0--7\-6--6--6--6--6--6--|--0--7--7--0--7--7--0--7\--|--0--7\-6--6--6--6--6--6--|--0--------0--------0------| - - - - - - - -
------------------------|--------------------------|------------------------|--------------------------|--8-----8---------------|--------------------------|------------------------|-----3/-6-----7\-6-----6--|--6--0--6--------9\-0---|--0--3/-6--0--7\-6--0--6--|-----0-----------9\-0---|--0--3/-6--0--7\-6--0--6--| - - - -
--------------------------|--------------------------|--------------------------|--------------------------|--------------------------|-----8--8-----9--9-----9--|--------------6--6--6--6--|--------------------------|--6--6--6--6--6--6--6--6--|--0--6--6--0--7--7--0--7--|--6--6--6--6--6--6--6--6--|--0--------0--------0-----| - - - - - - -
--------------------------|--------------------------|--------------------------|--------------------------|--9/-11--11---------------|--------------------------|--------------------------|--6--6--6--7--7--7--7--7--|--7/--9---9---------9\-0--|--6--6--6--7--7--7--7--7--|--------------------9\-0--|--6--6--6--7--7--7--7--7--|
--------------------------|-----------------------------|--------------------------|-----------------------------|--------------------------|-----11\-9-----9--9-----11\--|--9--9--9--7--7--7--7--7--|-----------------------------|--9--9--9--7--7--7--7--7--|--0---9\-7--0--7--7--0---9\--|--9--9--9--7--7--7--7--7--|--0---------0--------0-------| - - -
----------------------|--------------------------|-------------------------|----------------------|--------------------------|-------------------------|-8-----8--------------|--------------------------|-------------------------|----------------------|--6--6--6--7--7--7--7--7--|--9--9--9--7--7--7--7--7-|-6--0--6--------9\-0--|--6--6--6--7--7--7--7--7--|--9--9--9--7--7--7--7--7-|----0-----------9\-0--|--6--6--6--7--7--7--7--7--|--9--9--9--7--7--7--7--7-| -
Riff 1 (00:51)|--------------------------|--------------------------||--------------------------|--------------------------||--------------------------|--------------------------||--6-----7-----6-----6-----|-----6--6/-7--7--7--7--7--||--6--0--7--0--6--0--6--0--|--0--6--6/-7--7--7--7--7--||--6--0--7--0--6--0--6--0--|--0--6--6/-7--7--7--7--7--| - - - - -
--------------------------|--------------------------|--------------------------|--------------------------|--------------------------|--------------------------|--6-----7-----6-----6-----|-----9--9--7--7--7--7--7--|--6--0--7--0--6--0--6--0--|--0--9--9--7--7--7--7--7--|--6--0--7--0--6--0--6--0--|--0--9--9--7--7--7--7--7--| - - - - -
--------------------------|--------------------------|--------------------------|--------------------------|--------------------------|--------------------------|--6-----7-----6-----6-----|-----6--6/-7--7--7--7--7--|--6--0--7--0--6--0--6--0--|--0--6--6/-7--7--7--7--7--|--6--0--7--0--6--0--6--0--|--0--6--6/-7--7--7--7--7--| - - - - -
--------------------------|--------------------------|--------------------------|--------------------------|--------------------------|--------------------------|--9--9--9--9--9--9--9--9--|--7--7--7--7--7--7--7--7--|--9--9--9--9--9--9--9--9--|--7--7--7--7--7--7--7--7--|--9--9--9--9--9--9--9--9--|--7--7--7--7--7--7--7--7--|
Main Verse (01:03)|--------------------------|------------------------------||--------------------------|------------------------------||--------------------------|------------------------------||-----3/-6-----7\-6-----6--|-----6--6-----6--6------------||--0--3/-6--0--7\-6--0--6--|--0--6--6--0--6--6--0/-12\-0--||--0--3/-6--0--7\-6--0--6--|--0--6--6--0--6--6--0/-12\-0--| - - - - -
--------------------------|--------------------------|--------------------------|--------------------------|--------------------------|--------------------------|-----3/-6-----7\-6-----6--|-----6--6-----6--6-----6--|2X--0--3/-6--0--7\-6--0--6--|--0--6--6--0--6--6--0--6--|--0--3/-6--0--7\-6--0--6--|--0--6--6--0--6--6--0--6--| - - - - - -
--------------------------|--------------------------|--------------------------|--------------------------|--------------------------|--------------------------|-----3/-6-----7\-6-----6--|--------------6--6--6--6--|--0--3/-6--0--7\-6--0--6--|--6--6--6--6--6--6--6--6--|--0--3/-6--0--7\-6--0--6--|--6--6--6--6--6--6--6--6--| - - - - - - -
Verse 1 (01:16)|-------------------------|-----------------------|------------------------||-------------------------|-----------------------|------------------------||----8--8-----8--8-----9--|--9-----9--------------|------------------------||-------------------------|-----------------------|-----7\-6---------------||-0--6--6--0--6--6--0--7--|--7--0--7--------9\-0--|--0--7\-6--6--6--6--6--6||-0--------0--------0-----|-----0-----------9\-0--|--0--7\-6--6--6--6--6--6| - - - - - - - - - -
--------------------------|---------------------------|--------------------------|---------------------------|--------------------------|-----9--9-----9--9-----9\--|-----7\-6--------------6--|---------------------------|--0--7\-6--6--6--6--6--6--|--0--7--7--0--7--7--0--7\--|--0--7\-6--6--6--6--6--6--|--0--------0--------0------| - - - - - - - -
-----------------------|--------------------------|-----------------------|--------------------------|--8-----8--------------|--------------------------|-----------------------|-----3/-6-----7\-6-----6--|--6--0--6--------9\-0--|--0--3/-6--0--7\-6--0--6--|-----0-----------9\-0--|--0--3/-6--0--7\-6--0--6--| - - - -
--------------------------|--------------------------|--------------------------|--------------------------|--------------------------|-----8--8-----9--9-----9--|--------------6--6--6--6--|--------------------------|--6--6--6--6--6--6--6--6--|--0--6--6--0--7--7--0--7--|--6--6--6--6--6--6--6--6--|--0--------0--------0-----| - - - - - - -
-------------------------|--------------------------|-------------------------|--------------------------|--9/-11--11--------------|--------------------------|-------------------------|--6--6--6--7--7--7--7--7--|--7/--9---9--------9\-0--|--6--6--6--7--7--7--7--7--|-------------------9\-0--|--6--6--6--7--7--7--7--7--|
--------------------------|-----------------------------|--------------------------|-----------------------------|--------------------------|-----11\-9-----9--9-----11\--|--9--9--9--7--7--7--7--7--|-----------------------------|--9--9--9--7--7--7--7--7--|--0---9\-7--0--7--7--0---9\--|--9--9--9--7--7--7--7--7--|--0---------0--------0-------| - - -
----------------------|--------------------------|-------------------------|----------------------|--------------------------|-------------------------|-8-----8--------------|--------------------------|-------------------------|----------------------|--6--6--6--7--7--7--7--7--|--9--9--9--7--7--7--7--7-|-6--0--6--------9\-0--|--6--6--6--7--7--7--7--7--|--9--9--9--7--7--7--7--7-|----0-----------9\-0--|--6--6--6--7--7--7--7--7--|--9--9--9--7--7--7--7--7-| -
Riff 1 (2X)(01:41)--------------------------|--------------------------| --------------------------|--------------------------| --------------------------|--------------------------| --6-----7-----6-----6-----|-----6--6/-7--7--7--7--7--| --6--0--7--0--6--0--6--0--|--0--6--6/-7--7--7--7--7--| --6--0--7--0--6--0--6--0--|--0--6--6/-7--7--7--7--7--| - - - - -
--------------------------|--------------------------|--------------------------|--------------------------|--------------------------|--------------------------|--6-----7-----6-----6-----|-----9--9--7--7--7--7--7--|--6--0--7--0--6--0--6--0--|--0--9--9--7--7--7--7--7--|--6--0--7--0--6--0--6--0--|--0--9--9--7--7--7--7--7--| - - - - -
--------------------------|--------------------------|--------------------------|--------------------------|--------------------------|--------------------------|--6-----7-----6-----6-----|-----6--6/-7--7--7--7--7--|--6--0--7--0--6--0--6--0--|--0--6--6/-7--7--7--7--7--|--6--0--7--0--6--0--6--0--|--0--6--6/-7--7--7--7--7--| - - - - -
--------------------------|--------------------------|--------------------------|--------------------------|--------------------------|--------------------------|--9--9--9--9--9--9--9--9--|--7--7--7--7--7--7--7--7--|--9--9--9--9--9--9--9--9--|--7--7--7--7--7--7--7--7--|--9--9--9--9--9--9--9--9--|--7--7--7--7--7--7--7--7--|
Breakdown (02:07)|----------------------|--------------------------||----------------------|--------------------------||----------------------|--------------------------||----------------------|--------------------------||--0----0----0----0----|--3/6~------6/9~----------||--0----0----0----0----|--------------------------|
----------------------|--------------------------|----------------------|--------------------------|----------------------|--------------------------|----------------------|--------------------------|--0----0----0----0----|--6/9~------9/12~---------|--0----0----0----0----|--------------------------|
----------------------|--------------------------|----------------------|--------------------------|----------------------|--------------------------|----------------------|--7/10\4~----4/7\1~-------|--0----0----0----0----|--------------------------|--0----0----0----0----|--------------------------|
----------------------|--------------------------|----------------------|--------------------------|----------------------|--------------------------|----------------------|--------------------------|--0----0----0----0--3-|--6--3~----3--6~----------|--0----0----0----0----|--------------------------|
-------------------------|-----------------------|-------------------------|-----------------------|-------------------------|-----------------------|-------------------------|-----------------------|--0--0-----3/6--6-----6/-|--9--9-----9/12~-------|--0--0--0----------0-----|--------0--------------| - - -
--------------------------|-------------------------|--------------------------|-------------------------|--------------------------|-------------------------|-----------7\4--4-----4/--|--7\1-----1/4------------|--0--0--------------------|---------------3--3--3---|--0--0--0----------0------|-------0-----------------| - - -
-------------------------|-----------------------|-------------------------|-----------------------|-------------------------|-----------------------|-------------------------|-----------------------|--0--0-----3/6--6-----6/-|--9--9-----9/12~-------|--0--0--0----------0-----|--------0--------------| - - -
--------------------------|-------------------------|--------------------------|-------------------------|--------------------------|-------------------------|-----------7/10\4-----4/--|--7\1-----1/4------------|--0--0--------------------|---------------3--3--3---|--0--0--0----------0------|-------0-----------------| - - -
-------------------------|-----------------------|-------------------------|-----------------------|-------------------------|-----------------------|-------------------------|-----------------------|--0--0-----3/6--6-----6/-|--9--9-----9/12~-------|--0--0--0----------0-----|--------0--------------| - - -
--------------------------|-------------------------|--------------------------|-------------------------|--------------------------|-------------------------|-----------7\4--4-----4/--|--7\1-----1/4------------|--0--0--------------------|---------------3--3--3---|--0--0--0----------0------|-------0-----------------| - - -
-------------------------|-----------------------|-------------------------|-----------------------|-------------------------|-----------------------|-------------------------|-----------------------|--0--0-----3/6--6-----6/-|--9--9-----9/12~-------|--0--0--0----------0-----|--------0--------------| - - -
-------------------------|----------------------|-------------------------|----------------------|-------------------------|----------------------|-----------7\4--4-----4/-|--7--7-----7/13~------|--0--0-------------------|----------------------|--0--0--0----------0-----|--------0-------------| - - -
---------|-------------------------|---------|-------------------------|---------|-------------------------|---------|-------------------------|---------|---------------5/-12\-0--|---------|---------------5/-12\-0--|
Riff 1 (2X)(02:48)|--------------------------|--------------------------| |--------------------------|--------------------------| |--------------------------|--------------------------| |--6-----7-----6-----6-----|-----6--6/-7--7--7--7--7--| |--6--0--7--0--6--0--6--0--|--0--6--6/-7--7--7--7--7--| |--6--0--7--0--6--0--6--0--|--0--6--6/-7--7--7--7--7--| - - - - -
--------------------------|--------------------------|--------------------------|--------------------------|--------------------------|--------------------------|--6-----7-----6-----6-----|-----9--9--7--7--7--7--7--|--6--0--7--0--6--0--6--0--|--0--9--9--7--7--7--7--7--|--6--0--7--0--6--0--6--0--|--0--9--9--7--7--7--7--7--| - - - - -
--------------------------|--------------------------|--------------------------|--------------------------|--------------------------|--------------------------|--6-----7-----6-----6-----|-----6--6/-7--7--7--7--7--|--6--0--7--0--6--0--6--0--|--0--6--6/-7--7--7--7--7--|--6--0--7--0--6--0--6--0--|--0--6--6/-7--7--7--7--7--| - - - - -
--------------------------|--------------------------|--------------------------|--------------------------|--------------------------|--------------------------|--9--9--9--9--9--9--9--9--|--7--7--7--7--7--7--7--7--|--9--9--9--9--9--9--9--9--|--7--7--7--7--7--7--7--7--|--9--9--9--9--9--9--9--9--|--7--7--7--7--7--7--7--7--|
Outro (03:13)|--------------------------|||--------------------------|||--------------------------|||-----3/-6-----7\-6--6--6--|||--0--3/-6--0--7\-6--6--6--|||--0--3/-6--0--7\-6--6--6--|| - -
- Palm Mute / Slide Up \ Slide Down ~ Vibrato
Tap to rate this tab
 
# A B C D E F G H I J K L M N O P Q R S T U V W X Y Z