Cancer Bats - Sorceress tab

----------------------------------------------------------
                Sorceress - Cancer Bats
----------------------------------------------------------
Album: Hail Destroyer
Tabbed by: Pete_KC
Email: pete8---@hotmail.com

Tuning: Drop C (CGCFAD)


Main RiffD|--------------------|-------------------|A|--------------------|-------------------|F|--------------------|-------------------|C|-----------1p0------|----------1p0------|G|-------1h3-----3p1--|------1h3-----3*---|C|---1h3--------------|--1h3--------------|\
2XD|--------------------|-------------------|/A|--------------------|-------------------|F|--------------------|-------------------|C|-----------1p0------|-------------------|G|-------1h3-----3p1--|------3h5-----1h3--|C|---1h3--------------|--3h5-----1h3------|
|--------------------|-------------------||--------------------|-------------------||--------------------|-------------------||-----------3p0------|----------3p0------||-------1h3-----3p1--|------1h3-----3*---||---1h3--------------|--1h3--------------|
|--------------------|-------------------||--------------------|-------------------||--------------------|-------------------||-----------3p0------|-------------------||-------1h3-----3p1--|------3h5-----1h3--||---1h3--------------|--3h5-----1h3------|
|--------------------|-------------------||--------------------|-------------------||--------------------|-------------------||-----------1p0------|----------1p0------||-------1h3-----3p1--|------1h3-----3*---||---1h3--------------|--1h3--------------|
|--------------------|-------------------||--------------------|-------------------||--------------------|-------------------||-----------1p0------|-------------------||-------1h3-----3p1--|------3h5-----1h3--||---1h3--------------|--3h5-----1h3------|
Breakdown 1|--------------------|--------------------||--------------------|--------------------||--------------------|--------------------||--------------------|--------------------||---1p0-0-0-0-0-0-0--|--1p0-0-0-0-0-0-0---||---1p0-0-0-0-0-0-0--|--1p0-0-0-0-0-0-0---| - - - - - - - - - - - -
|--------------------|--------------------||--------------------|--------------------||--------------------|--------------------||--------------------|--------------------||---1p0-0-0-0-0-0-0--|------3h5-----1h3---||---1p0-0-0-0-0-0-0--|--3h5-----1h3-------|
- - - - - - |--------------------|--------------------||--------------------|--------------------||--------------------|--------------------||--------------------|--------------------||---1p0-0-0-0-0-0-0--|--1p0-0-0-0-0-0-0---||---1p0-0-0-0-0-0-0--|--1p0-0-0-0-0-0-0---| - - - - - - - - - - - -
|----------------------|------------------||--------------(Natural Harmonics)--------||---------------5*-5*--|--5*--------------||---------------5*-5*--|--5*--------------||---1p0-0-0-0-0-0------|------------------||---1p0-0-0-0-0-0------|------------------| - - - -
Breakdown 2|---------------|---------------||---------------|---------------||---------------|---------------||---5--0--0--0--|--5--0--0--0---|3X|---5--0--0--0--|--5--0--0--0---||---0--0--0--0--|--0--0--0--0---|
|---------------|---------------||---------------|---------------||---------------|---------------||---5--0--0--0--|---------------||---5--0--0--0--|--/12b---------||---0--0--0--0--|---------------|
Repeat Main Riff and Breakdown 1 & 2
Solo|-----------|----------|----------|--/17b---||-----------|--/16~~---|--/18~~---|---------||---/15~~---|----------|----------|---------||-----------|----------|----------|---------||-----------|----------|----------|---------||-----------|----------|----------|---------|ThatÂ’s all I have for the solo... sorry!!
Repeat Main Riff and Breakdown 1 h Hammer-on p Pull-off b Bend - Palm Mute * Harmonics / Slide Up \ Slide Down ~ Vibrato
Tap to rate this tab
 
# A B C D E F G H I J K L M N O P Q R S T U V W X Y Z