Cancer Bats – Smiling Politely tab

------------------------------------------------------------------
                  Smiling Politely - Cancer Bats
------------------------------------------------------------------
Album: Hail Destroyer
Tabbed by: Pete_KC
Email: pete8---@hotmail.com

Tuning: Drop C (CGCFAD)


Main Riff AD|--------------------|--------------------|A|--------------------|--------------------|F|--------------------|--------------------|C|--------------------|--------------------|6XG|-------5-----6---6--|------5-----5\2/6---|C|---0-0---0-0---0----|--0-0---0-0---------|
Main Riff B (00:22)|----------------------|----------------------||----------------------|----------------------||----------------------|----------------------||-------------5*~--5*~-|------------5*~--5*~--||-------5--------------|------5---------------||---0-0---0-0----0-----|--0-0---0-0----0------|\
3X|----------------------|----------------------|/|----------------------|----------------------||----------------------|----------------------||-------------5*~--5*~-|----------------------||-------5--------------|------5-----5\2/6-----||---0-0---0-0----0-----|--0-0---0-0-----------|
Main Riff C (00:44)|----------------------|--------------------||----------------------|--------------------||----------------------|--------------------||-------------5*~------|--------------------||-------5--------------|------5-----6-5-4---||---0-0---0-0----------|--0-0---0-0---------|
|----------------------|--------------------||----------------------|--------------------||----------------------|--------------------||-------------5*~------|--------------------||-------5--------------|------5-----5\2/6---||---0-0---0-0----------|--0-0---0-0---------|
|----------------------|--------------------||----------------------|--------------------||----------------------|--------------------||-------------5*~------|--------------------|2X|-------5--------------|------5-----6-5-4---||---0-0---0-0----------|--0-0---0-0---------|
Breakdown 1 (00:59)|-----------0--0-0--|---------0---0-0---||-----------0--0-0--|---------0---0-0---||-----------0--0-0--|---------0---0-0---||-----4-------------|-------------------||---0-2-2-2---------|---0-1-1-----------||---0---2-2---------|---0-1-1-----------|
|-----------0--0-0--|---------0-----------||-----------0--0-0--|---------0-----------||-----------0--0-0--|---------0-----------||-----4-------------|-------------5-4-3---||---0-2-2-2---------|---0-1-1---0-3-2-1---||---0---2-2---------|---0-1-1---0---------|
|-----------0--0-0--|---------0---0-0---||-----------0--0-0--|---------0---0-0---||-----------0--0-0--|---------0---0-0---||-----4-------------|-------------------||---0-2-2-2---------|---0-1-1-----------||---0---2-2---------|---0-1-1-----------|
Breakdown 2 (01:10)|---------------------||---------------------||---------------------||-----5-4-3-----------|4X|---0-3-2-1-0-3-2-1---||---0-------0-3-2-1---|
|----------|----------||----------|----------||---7------|-------7--||---7------|-------7--||---5------|-------5--||---0------|-------0--|
|----------|----------||----------|----------|Use killswitch or|---7------|----------|If you have a guitar with pickup volumes,|---7------|----------|set the lead volume at 10 and the rhythm|---5------|----------|volume at 0. Then flick the switch on and off.|---0------|----------|
|--------------------|--------------------||--------------------|--------------------||--------------------|--------------------||--------------------|--------------------|2X|-------5-----6---6--|------5-----5\2/6---||---0-0---0-0---0----|--0-0---0-0---------|
Repeat Main Riff B & C and Breakdown 1 & 2
Solo (02:38)(Using Wah pedal)|-----------------------|-----------------||---6---6--6--6--6--6---|--8------4-------||---9b--9b-9b-9b-9b-9b--|--11b----7b------||-----------------------|-----------------||-----------------------|-----------------||-----------------------|-----------------|
|-------------------------|-----------------||---6---6--6--6--6--6--6--|--8------7-------||---9b--9b-9b-9b-9b-9b-9b-|--11b----10b-----||-------------------------|-----------------||-------------------------|-----------------||-------------------------|-----------------|
|-------------------------|-----------------||---6---6--6--6--6--6--6--|--8------10------||---9b--9b-9b-9b-9b-9b-9b-|--11b----13b-----||-------------------------|-----------------||-------------------------|-----------------||-------------------------|-----------------|
|---13---13--13--13--13--13--13----||---16b--16b-16b-16b-16b-16b-16b---||----------------------------------||----------------------------------||----------------------------------||----------------------------------|
|---13--13--13--13--13--13--13--13---||---16b-16b-16b-16b-16b-16b-16b-16b--||------------------------------------||------------------------------------||------------------------------------||------------------------------------|
|--------------------|--------------------||--------------------|--------------------||--------------------|--------------------||--------------------|--------------------|4X|-------5-----6---6--|------5-----5\2/6---||---0-0---0-0---0----|--0-0---0-0---------|
Repeat Main Riff B
Outro (03:30)|-----------------|------------------||-----------------|------------------||-----------------|------------------||-----7---7-8\----|----7---7-8\------||---0-5-0-5-6\----|--0-5-0-5-6\------||---0---0---------|--0---0-----------|\
3X|-----------------|------------------|/|-----------------|------------------||-----------------|------------------||-----7---7-8\----|----7---7-7-4-8---||---0-5-0-5-6\----|--0-5-0-5-5-2-6---||---0---0---------|--0---0-----------|
\ Slide Down / Slide Up * Harmonics ~ Vibrato b Bend
Please rate this tab:
x1.0