Cancer Bats – Harem Of Scorpions tab

Harem of Scorpions
by Cancer Bats
from Hail Destroyer
Drop C tuning

Intro/Verse|--------------------------|--------------------------||--------------------------|--------------------------||--------------------------|--------------------------||-444-777-1010101010101010-|-444-777-101010777-101077-|\|-222-555-8-8-8-8-8-8-8-8--|-222-555-8-8-8-555-8-8-55-| \|--------------------------|--------------------------| \
3x|--------------------------|--------------------------| /|--------------------------|--------------------------| /|--------------------------|--------------------------|/|-444-777-1010101010101010-|-101010-777-101010-444-77-||-222-555-8-8-8-8-8-8-8-8--|-8-8-8--555-8-8-8--222-55-||--------------------------|--------------------------|
Chorus|--------------------------------||--------------------------------||--------------------------------||--------------------------------||-10-77-10-77-10710-77-10-77-107-||--------------------------------|PM ** ** * ** ** *
|---------------------||---------------------||---------------------||-5-5-5-5-5-5-5-5-5-5-||-5-5-5-5-5-5-5-5-5-5-||-5-5-5-5-5-5-5-5-5-5-|
|--------------------------------||--------------------------------||--------------------------------||--------------------------------||-10-77-10-77-10710-77-10-77-107-||--------------------------------|PM ** ** * ** ** *
|---------------------||---------------------||---------------------||-5-5-5-5-5-9-9-9-9-9-||-5-5-5-5-5-9-9-9-9-9-||-5-5-5-5-5-9-9-9-9-9-|
|--------------------------------||--------------------------------||--------------------------------||--------------------------------||-10-77-10-77-10710-77-10-77-107-||--------------------------------|PM ** ** * ** ** *
|---------------------||---------------------||---------------------||-9-9-9-9-9-2-2-2-2-2-||-9-9-9-9-9-2-2-2-2-2-||-9-9-9-9-9-2-2-2-2-2-|
|--------------------------------||--------------------------------||--------------------------------||--------------------------------||-10-77-10-77-10710-77-10-77-107-||--------------------------------|PM ** ** * ** ** *
|---------------------||---------------------||---------------------||-2-2-2-2-2-5-5-5-5-5-||-2-2-2-2-2-5-5-5-5-5-||-2-2-2-2-2-5-5-5-5-5-|
Repeat Intro/Verse 2x Repeat Chorus
Bridge|------------------------------------------------------------------||------------------------------------------------------------------||------------------------------------------------------------------||-5-5-5-5-5-5-5-5-5-5-5-5-5-5-9-10-2-2-2-2-2-2-2-2-2-2-2-2-2-2-2-2-|4x|-5-5-5-5-5-5-5-5-5-5-5-5-5-5-9-10-2-2-2-2-2-2-2-2-2-2-2-2-2-2-2-2-||-5-5-5-5-5-5-5-5-5-5-5-5-5-5-9-10-2-2-2-2-2-2-2-2-2-2-2-2-2-2-2-2-|
|----------------------||----------------------||----------------------||-5~--------2~---------|2x|-5~--------2~---------||-5~--------2~---------|
|-------------------------------------------||-------------------------------------------||-------------------------------------------||-555-555-55-222-222-22-555-555-55-22222222-||-555-555-55-222-222-22-555-555-55-22222222-||-555-555-55-222-222-22-555-555-55-22222222-|
Repeat Intro/Verse 3x
End on|-----///////-||-----///////-||-----///////-||-------------||-------------||-0~----------|
Please rate this tab:
x1.0