Candlebox – Mothers Dream tab

Artist Name : Candlebox
Song Name   : Mother's Dream
Added By Mikhailo
 

-------------------------------------------------------17------16------------16------17-----16-----------16-----14-----14--------14---14------14----14-------14----------------14----14----------------------14---14-----------14-------14------------14-----14------14-------------------------------------------------------------
--------------------------17----16-------14-----14----14---------------------14----14-----14----------------------------
PLAY 4 TIMES---------------------------------------------------16----16---16----16---16----16---16--17-17-17-17--14----14---14----14---14----14---14--14-14-14-14--14-14-14---14-14-14---14-14-14---14--14-14-14-14--14-14-14---14-14-14---14-14-14---14--14-14-14-14-------------0-----------0----------0--------------
-------------------------------------------16----(16)----(16)----(16)---17---14------14----(14)----(14)----(14)------------14--14----(14)----(14)----(14)----------------14----(14)----(14)----(14)-----------------0----(0) ----(0) ----(0) ---------------
-------------------------------------------14-----(14)-----16h17-----16------(16)------------------14-------14-------------14-------------------------------------------------------------------------------------------------------------------------------
-------14------------------------------------17b1-----17b1----------------------------------------------16b1---16--14------(14)\\\2-------------------------------------------------------------------------------------------------------------------------------------
---------------------------------------------------17b1-hold---(17)-17------16--(16)-------14--(14)----------------------14------14------14---(14)-14-----------------------------------------------------------------------------------------------------
------------------------------------------------------17----16----14----17---16----14--------17--14------------14---14----14----14---14----14-14----------------------------------------------------------------------------------------------------------------------------------------------------------------------------0-
---------------------------------------------------16----16---16----16---16----16---16--17-17-17-17--14----14---14----14---14----14---14--14-14-14-14--14-14-14---14-14-14---14-14-14---14--14-14-14-14--14-14-14---14-14-14---14-14-14---14--14-14-14-14----------0---------0----------0-------------------
---------------------------------------------------------19b1 1/2 hold---(19)--release-(19)------------17----16-------------------------------18\-----------14----------------------------------------------------------------------------------------------------------------------------------------------------------------------------------
-----------------------------------------------------16-----14--14-----17-----16~~~~~~~~~~~~~~(16)---14-----------------14------14-----------------------14-------------------------------------------------------------------------------------------------------------------------------------------------------------
------------------------------------------------17----16---17---16--------------------------------14----14---14---14---14--------13----------------------------------16----16\14----14/16~~~----------------------------------------------------------------------------------------------
------------------------------------------------- -----------------------17------------------------
-----------------------17b1 1/2hold--release(17)-~~~~~(16)\\\\\\4-----------------------------------------------------------------------------------------------------------------------------------
-----------------------------------------------------------------------------16b1/2hold--(16)---14----(14)~~~~(14)------------------------------------------------------------------------------------------------------------------
------------------------------------------------14~~~~(14)~~~~--------------~~~~~-----------(14)---------------------------------------------------------------------------------------------------------------0-----0-----0----11\-
--------------------------------------------X/----X\-----2b1/4-------------------------X/----X\-----2b1/4-------------------------X/----X\--0--2b1/4----4----2---4~~~~(4)~~~-----------0------------------------------------------0-------------------------------
--------------------------------------------------------2b1/4--4--2b1/4-------------------------2--------2b1/4--4--2b1/4-------------------------2--2-h-4------4----2b1/4----4--2--4~~~~~~~(4)~~---------------------0--------------------------------------------------------------------------------
-------------------4---4b1/4-4~~~~4--4---4b1/4-4~~~~4-------------------------------------------------------
-------------------------------------2b1/4----------------------------2b1/4-------------------------0--2b1/4----4----2---4~~~~(4)~~~-0--------------------------------0-------------------------------
--------------------------------------------------------2b1/4--4--2b1/4-------------------------2--------2b1/4--4--2b1/4-------------------------2--2-h-4------4----2b1/4----4--2--4~~~~~~~(4)~~---------------------0--------------------------------------------------------------------------------
----------------- -4--4b1/4-4~~~~4--4--4b1/4-4~~~~4----------------------------------------------------
------------------------------------2b1/4---------------------------2b1/4------------------------0--2b1/4---4----2---4~~~~(4)~~~-0-------------------------------0------------------------------
-----------------------------------------------------2b1/4--4--2b1/4----------------------2--------2b1/4--4--2b1/4----------------------2--2-h-4------4--- 2b1/4----4--2--4~~~~(4)~~---------------------0--------------------------------------------------------------------------
-------------------4---4b1/4-4~~~~4--4---4b1/4-4~~~~4-------------------------------------------------------
-----------------------------2b1/4--------------------2--2b1/4--------------------2--2b1/4---4--2--4~~~(4)~~------------------------------------------------------------
-------------------4---4b1/4-4~~~~4--4---4b1/4-4~~~~4-------------------------------------------------------
-----------------------------------------------------------------------------------------------------------2-----------------2--4--4--4--4---4b1--4--4--4--4-4--2---4--2--4---(4)~~~~~~~~~~~~~~~~--------------------0--------------------------------------------------------------------------------------------------------
-----------------------------------------------------------4-4-4-4-4-4-4-4-4-4-4-4-4-4----------------------------------------------------------------------------------------
-------------------------------------------------------4p2---2b1/4----2-2-4b1/2-4--(4)~~~4p2--2-4b1/2-4~4~4~-------2b1/4----2-2-4b1---4--(4)~~~4p2--2-4b1---4~4~4~-----4--------4------------------------4--------------------------------------------------------------------------------------------------------------------------
----------------------------------------------------5b1---2--5--2--------------------2--5-2-4b1/2--x----------------4b1--(4)-p-2---2-4--------------x-----------------------------4-------------------------------------------------------------------------------------------------------------------
--------------------------------------------------------4-p-2--4p2--2------------------------------------------------4----4--4--2--4p2------------------------------------------------0--4----4p2---------------------------------------------------------4--2-4-2---------------------------------------------------------4p2---4b1 1/2~~
----------------------9--------9---------11----------------------------------10--(10)--10/12-----12\10/12-------9h11---11~~~~~~------------------------------------------------------------------------------------------------------------------------------------------~0~~~------------------------------------------------
-11----------12---------14--------16--------17--19b1/2----12-/-14-----14-/-17---16-/-17---17-/19---17-------------------------------------------------------------------------------------------------------------------------------------------------------------------------------------------------------------------------------
-19b1--(19)~~~\---------------------------------------------------------0--x-------------------------------------------------------16b1-----16b1-(16)p14---16-14------------------------------------------------16------16\---------------------------------------------------------------------------------------------------------------
Please rate this tab:
x1.0