Cannibal Corpse - Hammer Smashed Face tab

HAMMER SMASHED FACE
by Cannibal Corpse
Tuning: Eb Ab Db Gb Bb Eb
.-Palm Mute  ph-Pinch Harmonic
H-Hammer On  P-Pulloff ,-Tremolo Picking

Intro:

3x|---------------------------------------||---------------------------------------||---------------------------------------||---------------------------------------||-2--2--2--8\---------------------------||-0--0--0--6\---------------------------|
1x|---------------------------------------||---------------------------------------||---------------------------------------||-----------55554444--------------------||---------------------------------------||-00112222------------------------------|
3x|---------------------------------------||---------------------------------------||---------------------------------------||---------------------------------------||-222-222-222-8\------------------------||-000-000-000-6\------------------------|
... ... ...1x|---------------------------------------||---------------------------------------||---------------------------------------||-----------55554444--------------------||---------------------------------------||-00112222------------------------------|
3x|---------------------------------------||---------------------------------------||---------------------------------------||---------------------------------------||-222-222-222-8\------------------------||-000-000-000-6\------------------------| ... ... ...
1x|---------------------------------------||---------------------------------------||---------------------------------------||-----------55554444--------------------||---------------------------------------||-00112222------------------------------|
3x|---------------------------------------||---------------------------------------||---------------------------------------||---------------------------------------||---------------------------------------||0000000000000000-----------------------| ................
Bass Solo 4x
4x|---------------------------------------||---------------------------------------||---------------------------------------||-----9---------------------------------||-7p6---8---8---------------------------||---------7---5h6-----------------------|
. . .4x|---------------------------------------||---------------------------------------||---------------------------------------||-----4---------------------------------||2p1------3-----------------------------||-------0---0-1h2-----------------------| . .
3x|---------------------------------------||---------------------------------------||---------------------------------------||-----9---------------------------------||-7p6---8---8---------------------------||---------7---5h6-----------------------|
. . .1x|---------------------------------------||---------------------------------------||---------------------------------------||-----9---------------------------------||-7p6---8---8---------------------------||---------7---6p0-----------------------|
. . .8x|---------------------------------------||---------------------------------------||---------------------------------------||---------------------------------------||-4/5\4-1ph-----------------------------||-2/3\2-----0---------------------------|
.1x|---------------------------------------||---------------------------------------||---------------------------------------||---------------------------------------||-5--4--2-------------------------------||-3--2--0-------------------------------| . .
2x|----------------------------------------------------------------------||----------------------------------------------------------------------||----------------------------------------------------------------------||--------------------7----------------------------3--------------------||-7h10p7--6h9p6--9-9-5--8-7-5---3h6p3--2h5p2--5-5-1--5-4-2-------------||----------------7-7----6-5-3-----------------3-3----3-2-0-------------|
. . . . . . . .4x|---------------------------------------||---------------------------------------||---------------------------------------||---------------------------------------||-2h5p2--1h4p1--4/5\4--1ph--------------||---------------2/3\2------0------------| .
1x|---------------------------------------||---------------------------------------||---------------------------------------||---------------------------------------||-5--4--2-------------------------------||-3--2--0-------------------------------|
2x|----------------------------------------------------------------------||----------------------------------------------------------------------||----------------------------------------------------------------------||--------------------7----------------------------3--------------------||-7h10p7--6h9p6--9-9-5--8-7-5---3h6p3--2h5p2--5-5-1--5-4-2-------------||----------------7-7----6-5-3-----------------3-3----3-2-0-------------| . . . . . . . .
8x|---------------------------------------||---------------------------------------||---------------------------------------||---------------------------------------||-4/5\4-1ph-----------------------------||-2/3\2-----0---------------------------| .
3x|---------------------------------------||---------------------------------------||---------------------------------------||---------------------------------------||-2--2--2--8\---------------------------||-0--0--0--6\---------------------------|
Do this riff 4x3x 1x|---------------------------------------|-----------------------------||---------------------------------------|-----------------------------||---------------------------------------|-----------------------------||-----------55554444--------------------|-----------------------------||---------------------------------------|-2-2-4--2-2-4----------------||-00112222------------------------------|-0-0-2--0-0-2----------------| . . . .
4x|---------------------------------------||---------------------------------------||---------------------------------------||-----4---------------------------------||2p1------3-----------------------------||-------0---0-1h2-----------------------| . .
3x|---------------------------------------||---------------------------------------||---------------------------------------||-----9---------------------------------||-7p6---8---8---------------------------||---------7---5h6-----------------------|
. . .1x|---------------------------------------||---------------------------------------||---------------------------------------||-----9---------------------------------||-7p6---8---8---------------------------||---------7---6p0-----------------------| . . .
8x|---------------------------------------||---------------------------------------||---------------------------------------||---------------------------------------||-4/5\4-1ph-----------------------------||-2/3\2-----0---------------------------| .
1x|---------------------------------------||---------------------------------------||---------------------------------------||---------------------------------------||-5--4--2-------------------------------||-3--2--0-------------------------------| . .
2x|----------------------------------------------------------------------||----------------------------------------------------------------------||----------------------------------------------------------------------||--------------------7----------------------------3--------------------||-7h10p7--6h9p6--9-9-5--8-7-5---3h6p3--2h5p2--5-5-1--5-4-2-------------||----------------7-7----6-5-3-----------------3-3----3-2-0-------------|
. . . . . . . .4x|---------------------------------------||---------------------------------------||---------------------------------------||---------------------------------------||-2h5p2--1h4p1--4/5\4--1ph--------------||---------------2/3\2------0------------| .
1x|---------------------------------------||---------------------------------------||---------------------------------------||---------------------------------------||-5--4--2-------------------------------||-3--2--0-------------------------------| . .
2x|----------------------------------------------------------------------||----------------------------------------------------------------------||----------------------------------------------------------------------||--------------------7----------------------------3--------------------||-7h10p7--6h9p6--9-9-5--8-7-5---3h6p3--2h5p2--5-5-1--5-4-2-------------||----------------7-7----6-5-3-----------------3-3----3-2-0-------------| . . . . . . . .
8x|---------------------------------------||---------------------------------------||---------------------------------------||---------------------------------------||-4/5\4-1ph-----------------------------||-2/3\2-----0---------------------------| .
3x|---------------------------------------||---------------------------------------||---------------------------------------||---------------------------------------||-2--2--2--8\---------------------------||-0--0--0--6\---------------------------|
12x|---------------------------------------||---------------------------------------||---------------------------------------||---------------------------------------||-2--2--2-------------2--2--8\----------||-0--0--0-2h3p2h3p2h3-0--0--6\----------| . . . . .
2x|-----------------------------------------------------||-----------------------------------------------------||-----------------------------------------------------||------------------7-------------------3--------------||-7,10,7,6,9,------5---3,6,3,2,5,------1--------------||--------------7-7-----------------3-3----------------| . . . .
4x|---------------------------------------||---------------------------------------||---------------------------------------||---------------3-----------------------||-2,5,1,4,------1-----------------------||-----------3-3-------------------------| . .
2x|-----------------------------------------------------||-----------------------------------------------------||-----------------------------------------------------||---------------7---------------3---------------------||-7,10,6,9,-----5---3,6,2,5-----1---------------------||-----------7-7-------------3-3-----------------------| . . . .
4x|---------------------------------------||---------------------------------------||---------------------------------------||---------------------------------------||-2h5p2--1h4p1--4/5\4--1ph--------------||---------------2/3\2------0------------| .
8x|---------------------------------------||---------------------------------------||---------------------------------------||---------------------------------------||-4/5\4-1ph-----------------------------||-2/3\2-----0---------------------------| .
|---------------------------------------||---------------------------------------||---------------------------------------||---------------------------------------||-2--2--2--8\--2------------------------||-0--0--0--6\--0------------------------|
I know I should've organized the tab a little bit more but I don't have the time to do Until then enjoy the tab and as George Fisher says...keep supporting death metal.
Tap to rate this tab
 
# A B C D E F G H I J K L M N O P Q R S T U V W X Y Z