Cannibal Corpse – Bent Backwards And Broken tab ver. 2

Band: Cannibal Corpse
Album: The Wretched Spawn
Song: Bend Backwards And Broken

Copyright (c) Metal Blade 2004
Version 1.1 – 27.03.2006


Transcribed By: Robert Nowak
Email: robert.n74@web.de
unchallengedhate.de / japanische-kampfhoerspiele.de

. - palm mute / - slide up to
\ - slide down to ~ - vibrato
h - hammer on b - Bend
p - pull off Suffixes for bend
t - tap f - full bend h - half bend
ph - pinched harmonic q - quarter bend t - tap bend
* - see comment ^ - Hold bend r release bend
x - Stuccatto ~ - vibrato bend
, - slight palm mute () - ghost note, sustained note
" - tremolo note <> - Trill

Tuning 6 half steps down: Bb-Eb-Ab-Db-F-Bb

guitar one = left channel
guitar two = right channel


ATTENTION:
This one is very tricky so i wrote down the
drumtakes for a better understanding how
this is working...

X = Snare Drum

(0:00) introBoth gtr.|-------------------------------||-------------------------------||-------------------------------||-11----------------11-11-11-11-||--9-00000000000000--9--9--9--9-||-------------------------------| ..............
RIFF 1:both gtr. (0:02)|-X---X---X-----X------X----X-----X----X----X-----X---X----X----X---X----|------------------------------------------------------------------------|------------------------------------------------------------------------|------------------------------------------------------------------------|-0-7-4---0-6h7p6h7p6--9-10----------8-11-0-10-13-0-7-10-0-9-12-0-8-11-8-|-------8-------------------12-11-10------------------------------------- . . . . . . . . . . . . . . . . . . . . . . . .
-X---X---X-----X---------X-----X-----X---------X----------- ----------------------------------------------------------- ----------------------------------------------------------- ---------------------7h8p7h8p7-------7h10p7h10p7h10p7h10p7- -0-7-4---0-6h7p6h7p6-----------0--------------------------- -------8--------------------------------------------------- . . . . .
-X---X---X-----X------X----X---X---X----|| ----------------------------------------|| ----------------------------------------|| ----------------------------------------|| -0-7-4---0-6h7p6h7p6--------------------|| -------8--------------5555-2-----101010-|| . . . . .
RIFF 2:Both gtr. (0:10)|-X---X---X-----X------X----X-----X----X----X-----X---X----X----X---X----|------------------------------------------------------------------------|------------------------------------------------------------------------|------------------------------------------------------------------------|-0-7-4---0-6h7p6h7p6--9-10----------8-11-0-10-13-0-7-10-0-9-12-0-8-11-8-|-------8-------------------12-11-10------------------------------------- . . . . . . . . . . . . . . . . . . . . . . . .
-X----X---X----X----X---X---X---X--|| -----------------------------------|| -----------------------------------|| ------7------5---------------------|| -000008-000006-0000099999966666666-|| -----------------------------------|| ..... ..... .....
RIFF 3:Both gtr. (0:15)|-X---X----X-----X---X----X----X---X----X---X---X-----X---------X------X---|--------------------------------------------------------------------------|--------------------------------------------------------------------------|-----------------------------------------------------------7h8p7h8p7------|-0-8-11-0-10-13-0-7-10-0-9-12-0-8-11-8-0-7-4---0-6h7p6h7p6------------0---|---------------------------------------------8---------------------------- . . . . . . . . . . . . . . . . . . . . .
-X---------X-----------X---X---X-----X------X----------------| -------------------------------------------------------------| -------------------------------------------------------------| -7h10p7h10p7h10p7h10p7-----------------------------4-4-4-4-4-| -----------------------0-7-4---0-6h7p6h7p6---------4-4-4-4-4-| -----------------------------8--------------5555---2-2-2-2-2-| . . . . .
RIFF 2:Both gtr. (0:22)|-X---X---X-----X------X----X-----X----X----X-----X---X----X----X---X----|------------------------------------------------------------------------|------------------------------------------------------------------------|------------------------------------------------------------------------|-0-7-4---0-6h7p6h7p6--9-10----------8-11-0-10-13-0-7-10-0-9-12-0-8-11-8-|-------8-------------------12-11-10------------------------------------- . . . . . . . . . . . . . . . . . . . . . . . .
-X----X---X----X----- --------------------- --------------------- ------7------5------- -000008-000006-00000- --------------------- ..... ..... .....
RIFF 4:gtr. one (0:26) -X---X---X---X---X---X---X---X---X-------X---X---X---X---X---- -------------------------------------------------------------- -----------------8888888888888888----------------888855555555- -------------------------------------------------------------- -9999999966666666----------------1010101099996666------------- --------------------------------------------------------------
-X-----X-----X-----X-----X-------X---X---X---X---X-- ---------------------------------------------------- -7p4p0-6p3p0-7p4p0-6p3p0---------------------888888- ---------------------------------------------------- -------------------------10101010999966666666------- ----------------------------------------------------
-----X-------X----X-------X----X-------X----|| --------------------------------------------|| -4p0-10t0-4p0-4p0-12t0-4p0-4p0-10t0-4p0-4p0-|| --------------------------------------------|| --------------------------------------------|| --------------------------------------------||
RIFF 4:gtr. two (0:26) -X---X---X---X---X-------X-------X-------X-------X---X---X---- -------------------------------------------------------------- -------------------------------------------------------------- -88887777--------1010101010101010101010101010101088887777----- ---------99999999----------------------------------------9999- --------------------------------------------------------------
-X-------X-------X--------X------X-----X------X-----X---X---X---- ----------------------------------------------------------------- ---------1111111111111111-10p7p0-9p6p0-10p7p0-9p6p0-------------- -10101010-------------------------------------------88887777----- ------------------------------------------------------------9999- -----------------------------------------------------------------
-X-------X--------X-------X----X-------X----X-------X----|| ---------------------------------------------------------|| ---------------------------------------------------------|| -101010101010-5p0-11t0-5p0-5p0-13t0-5p0-5p0-11t0-5p0-5p0-|| ---------------------------------------------------------|| ---------------------------------------------------------||
RIFF 5:both gtr. (0:34)|-X---X----X-----X---X----X----X---X----X---X---X-----X---------X------X---|--------------------------------------------------------------------------|--------------------------------------------------------------------------|-----------------------------------------------------------7h8p7h8p7------|-0-8-11-0-10-13-0-7-10-0-9-12-0-8-11-8-0-7-4---0-6h7p6h7p6------------0---|---------------------------------------------8---------------------------- . . . . . . . . . . . . . . . . . . . . .
-X---------X-----------X---X---X-----X------X----X---X---X--X--|| ---------------------------------------------------------------|| ---------------------------------------------------------------|| -7h10p7h10p7h10p7h10p7-----------------------------------------|| -----------------------0-7-4---0-6h7p6h7p6---------------------|| -----------------------------8--------------5555-2---10--8--8--|| . . . . .
RIFF 2:Both gtr. (0:40)|-X---X---X-----X------X----X-----X----X----X-----X---X----X----X---X----|------------------------------------------------------------------------|------------------------------------------------------------------------|------------------------------------------------------------------------|-0-7-4---0-6h7p6h7p6--9-10----------8-11-0-10-13-0-7-10-0-9-12-0-8-11-8-|-------8-------------------12-11-10------------------------------------- . . . . . . . . . . . . . . . . . . . . . . . .
-X----X---X----X----- --------------------- --------------------- ------7------5------- -000008-000006-00000- --------------------- ..... ..... .....
RIFF 4:gtr. one (0:44) -X---X---X---X---X---X---X---X---X-------X---X---X---X---X---- -------------------------------------------------------------- -----------------8888888888888888----------------888855555555- -------------------------------------------------------------- -9999999966666666----------------1010101099996666------------- --------------------------------------------------------------
-X-----X-----X-----X-----X-------X---X---X---X---X-- ---------------------------------------------------- -7p4p0-6p3p0-7p4p0-6p3p0---------------------888888- ---------------------------------------------------- -------------------------10101010999966666666------- ----------------------------------------------------
-----X-------X----X-------X----X-------X----|| --------------------------------------------|| -4p0-10t0-4p0-4p0-12t0-4p0-4p0-10t0-4p0-4p0-|| --------------------------------------------|| --------------------------------------------|| --------------------------------------------||
RIFF 4:gtr. two (0:44) -X---X---X---X---X-------X-------X-------X-------X---X---X---- -------------------------------------------------------------- -------------------------------------------------------------- -88887777--------1010101010101010101010101010101088887777----- ---------99999999----------------------------------------9999- --------------------------------------------------------------
-X-------X-------X--------X------X-----X------X-----X---X---X---- ----------------------------------------------------------------- ---------1111111111111111-10p7p0-9p6p0-10p7p0-9p6p0-------------- -10101010-------------------------------------------88887777----- ------------------------------------------------------------9999- -----------------------------------------------------------------
-X-------X--------X-------X----X-------X----X-------X--------|| -------------------------------------------------------------|| -------------------------------------------------------------|| -101010101010-5p0-11t0-5p0-5p0-13t0-5p0-5p0-11t0-5p0-5p0-----|| -------------------------------------------------------------|| -------------------------------------------------------------||
RIFF 6:Both gtr. (0:52)|-X---X----X-----X---X----X----X---X----X----X---X----X-----|-----------------------------------------------------------|-----------------------------------------------------------|--------------------------------------------7------5-------|-0-8-11-0-10-13-0-7-10-0-9-12-0-8-11-8-000008-000006-00000-|----------------------------------------------------------- . . . . . . . . . . . . . . . . ..... ..... .....
RIFF 4: (ends up a little sooner than before)gtr. one (0:56) -X---X---X---X---X---X---X---X---X-------X---X---X---X---X---- -------------------------------------------------------------- -----------------8888888888888888----------------888855555555- -------------------------------------------------------------- -9999999966666666----------------1010101099996666------------- --------------------------------------------------------------
-X-----X-----X-----X-----X-------X---X---X---X---X----|| ------------------------------------------------------|| -7p4p0-6p3p0-7p4p0-6p3p0---------------------88888888-|| ------------------------------------------------------|| -------------------------10101010999966666666---------|| ------------------------------------------------------||
RIFF 4: (ends up a little sooner than before)gtr. two (0:56) -X---X---X---X---X-------X-------X-------X-------X---X---X---- -------------------------------------------------------------- -------------------------------------------------------------- -88887777--------1010101010101010101010101010101088887777----- ---------99999999----------------------------------------9999- --------------------------------------------------------------
-X-------X-------X--------X------X-----X------X-----X---X---X---X---- --------------------------------------------------------------------- ---------1111111111111111-10p7p0-9p6p0-10p7p0-9p6p0------------------ -10101010-------------------------------------------88887777--------- ------------------------------------------------------------99999999- ---------------------------------------------------------------------
------------------|| ------------------|| ------------------||
-1010101010101010-|| ------------------|| ------------------||
RIFF 7:Both gtr. (1:02)|--------------------------------------------------||--------------------------------------------------||--------------------------------------------------||-777777777777777777777777-------------------------||-------------------------999999999999999999999999-||--------------------------------------------------|
RIFF 8: 4 timesBoth gtr. (1:06)|-------------||-------------||-------------||-----------4-||-7-4---------||-----8-5-7---| . . . . .
RIFF 7: (1:10)gtr. 1 = lower notes / gtr.2 = higher|----------------------------------------------------||----------------------------------------------------||(555555555555555555555555)--------------------------||-777777777777777777777777(777777777777777777777777)-||--------------------------999999999999999999999999--||----------------------------------------------------|
RIFF 8: 4 timesBoth gtr. (1:14)|-------------||-------------||-------------||-----------4-||-7-4---------||-----8-5-7---| . . . . .
RIFF 7: (1:18)gtr. 1 = lower notes / gtr.2 = higher|-----------------------------------------------------||-----------------------------------------------------||(999999999999999999999999)(666666666666666666666666)-||-777777777777777777777777----------------------------||---------------------------999999999999999999999999--||-----------------------------------------------------|
RIFF 8: 4 timesBoth gtr. (1:22)|-------------||-------------||-------------||-----------4-||-7-4---------||-----8-5-7---| . . . . .
RIFF 9: 4 timesBoth gtr. (1:26)|---------------------------------------------------||---------------------------------------------------||---------------------------------------------------||-----------------5-----8---------------------------||-2---------4-------------2-00000-33332---6---4---7-||---4-3-0-2---4-4---7-7-----------------4---4---44--| . . . . . . . . . . ..... ..... . . ..
SOLO I
Rhythm under soloRIFF 10: (1:41)|-----------------------------------------------------------------|-----------------------------------------------------------------|-------------------------------------------------------7-----6---|-----5-5-----------------------------------------8---------------|---------4-4-----------7-----4---------------8-----------5-5---4-|-3-3---------6-6-0-0-0---0-0---3-6-6-6-3-0-7---5---6-6----------- . . . . . . . . . . . . . . . .
-----------------------------------------------------------------|| -----------------------------------------------------------------|| -------------------------------------------------------7-----6-6-|| -----5-5-----------------------------------------8---------------|| ---------4-4-----------7-----4---------------8-----------5-5-----|| -3-3---------6-6-0-0-0---0-0---3-6-6-6-3-0-7---5---6-6-----------|| . . . . . . . . . . . . . . .
RIFF 9: 4 timesBoth gtr. (1:52)|---------------------------------------------------||---------------------------------------------------||---------------------------------------------------||-----------------5-----8---------------------------||-2---------4-------------2-00000-33332---6---4---7-||---4-3-0-2---4-4---7-7-----------------4---4---44--| . . . . . . . . . . ..... ..... . . ..
RIFF 11:Both gtr. (2:07)|--------------------------------------------------|--------------------------------------------------|--------------------------------------------------|---5---3---6---5---3---6---5---3---6---5----------|---3---1---4---3---1---4---3---1---4---3----------|-0---0---0---0---0---0---0---0---0---0---0-333322-
. . . . . . . . . . . -------------------------------------------------- -------------------------------------------------- -------------------------------------------------- ---5---3---6---5---3---6---5---3---6-------------- ---3---1---4---3---1---4---3---1---4-------444433- -0---0---0---0---0---0---0---0---0---333322-------
. . . . . . . . . -------------------------------------------------- -------------------------------------------------- -------------------------------------------------- ---5---3---6---5---3---6---5---3---6---5---------- ---3---1---4---3---1---4---3---1---4---3---------- -0---0---0---0---0---0---0---0---0---0---0-333322- . . . . . . . . . . .
-----------------------------------------------------|| -----------------------------------------------------|| -----------------------------------------------------|| ---5---3---6---5---3---6-----------------------------|| ---3---1---4---3---1---4-------444433777766101010109-|| -0---0---0---0---0---0---333322----------------------|| . . . . . .
SOLO II
Rhythm under solo(2:23) intro|-------------------------------|-------------------------------|-------------------------------|-11----------------11-11-11-11-|--9-00000000000000--9--9--9--9-|------------------------------- ..............
2 times|-RIFF-12----------------------------------------------------------------|------------------------------------------------------------------------|------------------------------------------------------------------------|------------------------8------------------------------8----------------|------------------7-7-7-6---4----------------7-7-7-4---6-66666666666666-|-5h88888888888888-5-5-5-----2-22222222222222-5-5-5-2-------------------- ............. .............. ..............
-----------------------------------------------| -----------------------------------------------| -----------------------------------------------| -----------------11----------------11-11-11-11-| --------------10—-9-00000000000000—-9—-9—-9—-9—| -5h8-666666h9----------------------------------| ..... ..............
RIFF 13: Endingboth gtr. (2:42)|-X---X---X-----X------X----X-----X----X----X-----X---X----X----X---X----|------------------------------------------------------------------------|------------------------------------------------------------------------|------------------------------------------------------------------------|-0-7-4---0-6h7p6h7p6--9-10----------8-11-0-10-13-0-7-10-0-9-12-0-8-11-8-|-------8-------------------12-11-10------------------------------------- . . . . . . . . . . . . . . . . . . . . . . . .
-X---X---X-----X---------X-----X-----X---------X----------- ----------------------------------------------------------- ----------------------------------------------------------- ---------------------7h8p7h8p7-------7h10p7h10p7h10p7h10p7- -0-7-4---0-6h7p6h7p6-----------0--------------------------- -------8--------------------------------------------------- . . . . .
-X---X---X-----X------X----X---X---X--X-- ----------------------------------------- ----------------------------------------- ----------------------------------------- -0-7-4---0-6h7p6h7p6--------------------- -------8--------------5555-2---10--8--8-- . . . . .
-X---X---X-----X------X----X---X---X--X-- ----------------------------------------- ----------------------------------------- ----------------------------------------- -0-7-4---0-6h7p6h7p6--------------------- -------8--------------5555-2---10--8--8-- . . . . .
-X---X---X-----X------X----X---X---X--X-- ----------------------------------------- ----------------------------------------- ----------------------------------------- -0-7-4---0-6h7p6h7p6--------------------- -------8--------------5555-2---10--8--8-- . . . . .
-X---X---X-----X------X---------------|| --------------------------------------|| --------------------------------------|| ----------------------------4-4-4-4-4-|| -0-7-4---0-6h7p6h7p6--------4-4-4-4-4-|| -------8--------------5555--2-2-2-2-2-|| . . . . .
END
Please rate this tab:
x1.0