Cannibal Corpse – Murder Worship tab

Band:  Cannibal Corpse
Album: Kill
Song:  Murder Worship



.   - palm mute           /  - slide up to
\   - slide down to       ~  - vibrato
h   - hammer on           b  - Bend
p   - pull off            Suffixes for bend
t   - tap                 f  - full bend    h - half bend
ph  - pinched harmonic    q  - quarter bend t - tap bend
*   - see comment         ^  - Hold bend    r release bend
x   - Stuccatto           ~  - vibrato bend
,   - slight palm mute    () - ghost note, sustained note
"   - tremolo note        <> - Trill
chnl- Channel


First off, I want to thank Rob a lot for all the help with this tab.
Without it, it would have taken me a much longer time to do, and it would
not be quite as accurate. Thanks bro.


Alright, this isn't really your typical Alex Webster type song, its
pretty much fucking out there, but it still holds a really strong groove.
This is probably one of the best songs off KILL in my opinion.

Enjoy Cunts.

TUNING (Low to High) Bb Eb Ab Db Gb Bb


(0:00, 3:46)Intro Riff Play 2 Times|------------------------------------------------||------------------------------------------------||------------------------------------------------||-----5-8-/11-----------4------------------------||-2-2-7-5-/10--7777-----6----3333----666666------||-0-0---------------5555---------5555------332222| . .
(0:07, 1:24, 3:38)Riff 1|--------------------------------------------------------||--------------------------------------------------------||--------------------------------------------------------||--------------------------------------------------------||---------------------------------6---333300006666-------||-7-6-0-3-7-0-11-10-0-0-4-3-7-0-2---2-------------222222-| . . . . . . . . . . . . . . . .
---------------------------------------------------------| ---------------------------------------------------------| ---------------------------------------------------------| ---------------------------------------------------------| ---------------------------------6---333300006666--------| -7-6-0-3-7-0-11-10-0-0-4-3-7-0-2---2-------------22220000| . . . . . . . . . . . . . . . .
(0:14, 0:50, 2:26)Riff 2 Play 2 Times|-----------------------------------------------||-----------------------------------------------||-11---9------------------11--/15---13----------||-----------------------------------------------||-9----7------------------9---/13---11----------||---------880-660-880-660---------------880-660-| ... ... ... ... ... ...
(0:22, 0:58, 3:11)Riff 3 Play 4 Times|-------------------------------------------------||-------------------------------------------------||-------------------------------------------------||---------------------1-0-------------------------||---------4-1-2---3-0-----0-2-----1-4-3-----6---5-||-3-0-1-2-------4-------------4-0-------1-2---3---| . . . . . . . . . . . . . . . . . . . . . . . .
(0:36)Fill 1Left Chnl|-----------------------------------------||-----------------------------------------||-----------------------------------------||-----------------------------------------||-----------------------------------------||-330-110-3h6-0-0-7p6-330-110--3h6-0-0-7p6| ... ... . . ... ... . .
Right Chnl|----------------------------||----------------------------||----------------------------||----------------------------||----------------------------||-330-110-------------330-110| ... ... ... ...
(0:39, 1:12, 3:27)Riff 4Left Chnl|-------------------------------------------------------------------------------||-------------------------------------------------------------------------------||-------------------------------------------------------------------------------||-------------------------------------------------------------------------------||-------------------5\4------------------------5\4-----8-7----------------------||330-110-3h6-00-7-6-----6-3-330-110-3h6-00-7-6-----6-3-----9-6-9999666677774444-| ... ... .. . . . . ... ... .. . . . . . .
-------------------------------------------------------------------------------|-------------------------------------------------------------------------------|-------------------------------------------------------------------------------|-------------------------------------------------------------------------------|--------------------5\4-------------------------5\4-----8-7--------------------|-330-110-3h6-00-7-6-----6-3-330-110-3h6-00-7-6-----6-3-----9-6-9999666677774400| ... ... .. . . . . ... ... .. . . . . . .
(0:39, 1:12, 3:27)Riff 4Right Chnl|-------------------------------------------------------------------------------||-------------------------------------------------------------------------------||-------------------------------------------------------------------------------||-------------------------------------------------------------------------------||-------------------5\4-------------------------5\4-----8-7----7777444455552222-||330-110-3h6-00-7-6-----6-3-330-110-3h6-0-0-7-6-----6-3-----9-6-----------------| ... ... .. . . . . ... ... . . . . . . . .
-------------------------------------------------------------------------------|-------------------------------------------------------------------------------|-------------------------------------------------------------------------------|-------------------------------------------------------------------------------|--------------------5\4-------------------------5\4-----8-7----7777444455552200|-330-110-3h6-00-7-6-----6-3-330-110-3h6-0-0-7-6-----6-3-----9-6----------------| ... ... .. . . . . ... ... . . . . . . . .
Riff 2 Again Riff 3 Again Riff 4 Again Riff 1 2 Times
(1:38)Fill 2Right Chnl 3 Times|-----|-----------------------||-----|-----------------------||-----|-----------------------||-----|----------4h5p4--------||-5-2-|-ph---2-2--------------||-3-0-|-3bf--0-0------33330000| .
(1:45)Riff 5ALeft Chnl|--------------------------------------------------||--------------------------------------------------||--------------------------------------------------||---------------------4h5p4------------------4h5p4-||------------ph---2-2---------------ph---2-2-------||15\33330000-3bf--0-0------33330000-3bf--0-0-------| . . . .
----------------------------------------------|----------------------------------------------|----------------------------------------------|------------------4h5p4------------------4h5p4|---------ph---2-2---------------ph---2-2------|33330000-3bf--0-0------33330000-3bf--0-0------| . . . .
(1:45)Riff 5BRight Chnl|----------------------------------------------------||----------------------------------------------------||----------------------------------------------------||4h5p4------------------4h5p4------------------4h5p4-||--------------ph---2-2---------------ph---2-2-------||-----33330000-3bf--0-0------33330000-3bf--0-0-------| . . . .
----------------------------------------------|----------------------------------------------|----------------------------------------------|------------------4h5p4------------------4h5p4|---------ph---2-2---------------ph---2-2------|33330000-3bf--0-0------33330000-3bf--0-0------| . . . .
(1:52, 2:04, 2:15)Riff 5Both Channels Play 3 TimesRight Channel Plays Riff 5C 3rd time|--------------------------------------------------------------------||--------------------------------------------------------------------||--------------------------------------------------------------------||------------------4h5p4---------------------------------------------||---------ph---2-2-------6h7p6--2-2-4tr7-4tr7-4tr7-4tr7----------ph--||33330000-3bf--0-0--------------0-0---------------------33330000-3bf-| . . . .
---------------------------------------------------------------|---------------------------------------------------------------|---------------------------------------------------------------|-----------------------------------------------------5tr8-5tr8-|-7-4---6---------3---------------4-------3---------------------|-----6---6-5-3-3---3-6-4-0-0-4-0---0-3-3---3-6-4-0-0-----------| . . . . . . . . . . . . . . . . . . . . . . .
--------------------------------|--------------------------------|--------------------------------|-------66-----5tr8-5tr8-------66|-2--2--44---------------2--2--44|-0--0-----0-0-----------0--0----| . . . . . .
(2:15)Riff 5CRight Chnl|------------------------------------------------------------------------||------------------------------------------------------------------------||------------------------------------------------------------------------||------------------7h8p7-------------------------------------------------||---------ph---2-2-------9h10p9-2-2-7tr10-7tr10-7tr10-7tr10----------ph--||33330000-3bf--0-0--------------0-0-------------------------33330000-3bf-| . . . .
---------------------------------------------------------------|---------------------------------------------------------------|---------------------------------------------------------------|-----------------------------------------------------5tr8-5tr8-|-7-4---6---------3---------------4-------3---------------------|-----6---6-5-3-3---3-6-4-0-0-4-0---0-3-3---3-6-4-0-0-----------| . . . . . . . . . . . . . . . . . . . . . . .
--------------------------------|--------------------------------|--------------------------------|-------66-----5tr8-5tr8-------66|-2--2--44---------------2--2--44|-0--0-----0-0-----------0--0----| . . . . . .
Riff 2 Again
(2:34)Riff 6|---------------------------------------------------||---------------------------------------------------||---------------------------------------------------||---------------------------------------------------||---------------------------------------------------||660-330-660--330-990-660--660-330-660--330-990-660-| ... ... ... ... ... ... ... ... ... ... ... ...
(2:37)----------------------------------------------------|----------------------------------------------------|----------------------------------------------------|----------------------------------------------------|----------------------------------------------------|-660-330-660--330-990-660--660-330-660--330-990-660-| ... ... ... ... ... ... ... ... ... ... ... ...
(2:41)----------------------------|----------------------------|----------------------------|-9-----7-6-8----------------|---8-7-------10-----9-------|----------------9-8---11-10-| . . . . . .
Riff 7(2:43)|---------------------------------------------------||---------------------------------------------------||---------------------------------------------------||---------------------------------------------------||---------------------------------------------------||660-330-660--330-990-660--660-330-660--330-990-660-| ... ... ... ... ... ... ... ... ... ... ... ...
(2:46)----------------------------------------------------|----------------------------------------------------|----------------------------------------------------|----------------------------------------------------|----------------------------------------------------|-660-330-660--330-990-660--660-330-660--330-990-660-| ... ... ... ... ... ... ... ... ... ... ... ...
(2:50)-------------------------------------------------------|-------------------------------------------------------|-------------------------------------------------------|-9-----7-6-8-------------------------------------------|---8-7-------10-----9-------8-11------10-9-6-----------|----------------9-8---11-10------10-9--------8-7-5-0-0-| . . . . . . . . . . . . . .
(2:53)Riff 8|---------------------------------------------------||---------------------------------------------------||---------------------------------------------------||---------------------------------------------------||---------------------------------------------------||660-330-660--330-990-660--660-330-660--330-990-660-| ... ... ... ... ... ... ... ... ... ... ... ...
(2:57)----------------------------------------------------|----------------------------------------------------|----------------------------------------------------|----------------------------------------------------|----------------------------------------------------|-660-330-660--330-990-660--660-330-660--330-990-660-| ... ... ... ... ... ... ... ... ... ... ... ...
(3:01)-------------------------------------------------------|-------------------------------------------------------|-------------------------------------------------------|-9-----7-6-8-------------------------------------------|---8-7-------10-----9-------8-11------10-9-6-----------|----------------9-8---11-10------10-9--------8-7-5-0-0-| . . . . . . . . . . . . . .
(3:04)-------------------------------------------------|-------------------------------------------------|-------------------------------------------------|---------------------1-0-------------------------|---------4-1-2---3-0-----0-2-----1-4-3-----6---5-|-3-0-1-2-------4-------------4-0-------1-2---3---| . . . . . . . . . . . . . . . . . . . . . . . .
(3:08)-------------------------------------------------------|-------------------------------------------------------|-------------------------------------------------------|-9-----7-6-8-------------------------------------------|---8-7-------10-----9-------8-11------10-9-6-----------|----------------9-8---11-10------10-9--------8-7-5-0-0-| . . . . . . . . . . . . . .
Riff 3 Again
3:25Break|--------------||--------------||--------------||--------------||--------------||-330-110-1-1-1| ... ... . . .
Riff 4 Again Intro Riff Again END ON
Fill 3|-------------||-------------||-------------||-------------||5-2--ph--2-2-||3-0--3bf-0-0-| .
End.
Please rate this tab:
x1.0