Cannibal Corpse - Worm Infested tab version 2

Band: Cannibal Corpse
Album: Worm Infested (EP)
Song: Worm Infested
Record Label: MetalBlade
Tuning: Bb Eb Ab Db F Bb


/ = slide up
\ = slide down
^ = slight vibrato
pm.... = palm mute
trem.. = trem pick

---------------------------|---------------------------|---------------------------|---------------------------|---------------------------|-1/////////14\\\\\\\\\\\4--|
0:03-------------------|-------------------|-------------------|-------------------|-------------------|-0077444433333333--|X8
0:22 (Guitar 1)-------------------|-------------------|-------------------|-------------------|-------------------|-0077444433333333--|X4
0:22 (Guitar 2)-------------------|-------------------|----------------^--|---99666655555555--|-------------------|-00----------------|X4
0:31 (Both Guitars)-------------------------------------|-------------------------------------|-------------------------------------|-------------------------------------|-------------------------------------|-0074444633333333--0077444433333333--|X2
0:40 (Guitar 1)-------------------|-------------------|-------------------|-------------------|-------------------|-0077444433333333--|X4
0:40 (Guitar 2)-------------------|-------------------|----------------^--|---99666655555555--|-------------------|-00----------------|X4
0:49----------------------------------|----------------------------------|----------------------------------|-------------1-2-3-2-1------------|-2-----0-2-3-----------3-2-0---3--|-0-1-4-----------------------4-1--|X6 trem.......................
-------------------------------------|-------------------------------------|-------------------------------------|----------------------------3-2-1----|----------------------------------3--|-10103040-10103040-10103040----------|X2 pm...... ........ ........ trem....
----------------------------------|----------------------------------|----------------------------------|-------------1-2-3-2-1------------|-2-----0-2-3-----------3-2-0---3--|-0-1-4-----------------------4-1--|X4 trem.......................
-------------------------------------|-------------------------------------|-------------------------------------|----------------------------3-2-1----|----------------------------------3--|-10103040-10103040-10103040----------|X2 pm...... ........ ........ trem....
01:36--------------------------------------------------|--------------------------------------------------|--------------------------------------------------|-------------------------------------3-2-1--------|-------0-2-3-------0-2-3-------0-2-3-------3-2-0--|-0-1-4-------0-1-4-------0-1-4--------------------|X4 pm. . . . . . . . . . . . . . . . . . . . . . .
--------------------------|--------------------------|--------------------------|--------------------------|--------------------------|-0-1-4-0-4-5-0-1-4-0-4-5--|X4 pm. . . . . . . . . . .
--------------------------------------------------|--------------------------------------------------|--------------------------------------------------|-------------------------------------3-2-1--------|-------0-2-3-------0-2-3-------0-2-3-------3-2-0--|-0-1-4-------0-1-4-------0-1-4--------------------|X4 pm. . . . . . . . . . . . . . . . . . . . . . .
--------------------------|--------------------------|--------------------------|--------------------------|--------------------------|-0-1-4-0-4-5-0-1-4-0-4-5--|X2 pm. . . . . . . . . . .
2:10 (Guitar 1)-------------------------|-------------------------|-------------------------|-------------------------|-2--2--2--2--2--2--2--2--|-0--0--0--0--0--0--0--0--| pm . . . . . . .
2:10 (Guitar 2)----------------------------------|----------------------------------|----------------------------------|-------------1-2-3-2-1------------|-2-----0-2-3-----------3-2-0---3--|-0-1-4-----------------------4-1--| trem.......................
2:14 (Over Solo)----------------------------------|----------------------------------|----------------------------------|-------------1-2-3-2-1------------|-2-----0-2-3-----------3-2-0---3--|-0-1-4-----------------------4-1--|X4 trem.......................
-------------------|-------------------|-------------------|-------------------|-------------------|-0077444433333333--|X4
----------------------------------|----------------------------------|----------------------------------|-------------1-2-3-2-1------------|-2-----0-2-3-----------3-2-0---3--|-0-1-4-----------------------4-1--|X4 trem.......................
-------------------|-------------------|-------------------|-------------------|-------------------|-0077444433333333--|X4
2:54--------------------------|--------------------------|--------------------------|--------------------------|--------------------------|-0-1-4-0-4-5-0-1-4-0-4-5--|X4 pm. . . . . . . . . . .
--------------------------------------------------|--------------------------------------------------|--------------------------------------------------|-------------------------------------3-2-1--------|-------0-2-3-------0-2-3-------0-2-3-------3-2-0--|-0-1-4-------0-1-4-------0-1-4--------------------|X4 pm. . . . . . . . . . . . . . . . . . . . . . .
-------------------------------------|-------------------------------------|-------------------------------------|----------------------------3-2-1----|----------------------------------3--|-10103040-10103040-10103040----------|X2 pm...... ........ ........ trem....
----------------------------------|----------------------------------|----------------------------------|-------------1-2-3-2-1------------|-2-----0-2-3-----------3-2-0---3--|-0-1-4-----------------------4-1--| trem.......................
------------------------------------|------------------------------------|------------------------------------|-------------1-2-3-2-1---4-2--------|-2-----0-2-3-----------3-2-0-6-3-2--|-0-1-4-----------------------4-1-0--| trem.......................
THE END
Tap to rate this tab
 
# A B C D E F G H I J K L M N O P Q R S T U V W X Y Z