Cannibal Corpse - Hung And Bled tab version 2

#----------------------------------PLEASE NOTE---------------------------------#
#This file is the author's own work and represents their interpretation of the #
#song. You may only use this file for private study, scholarship, or research. #
#------------------------------------------------------------------------------#


Band:  (Cannibal Corpse)
Album: (Gore Obsessed)
Song:  (Hung and Bled)



.  - palm mute           /  - slide up to
\  - slide down to       ~  - vibrato
h  - hammer on           b  - Bend
p  - pull off            Suffixes for bend
t  - tap                 f  - full bend    h - half bend
ph - pinched harmonic    q  - quarter bend t - tap bend
*  - see comment         ^  - Hold bend    r release bend
x  - Stuccatto           ~  - vibrato bend
,  - slight palm mute    () - ghost note, sustained note
"  - tremolo note        <> - Trill

Tunning Key of B-Flat




riff A

|guitar|----------------------------||-one--|----------------------------||------|----------------------------||------|---------------6-----10\-8--||------|-7-------------7------------||12\---|-0---6h8p6--0--8--0--8-\-6--| . .
riff B guitar one|-----------------------------|-again-|-----------|-again-||-----------------------------|-riffA-|-----------|-riffA-||-----------------------------|-------|-6----5----|-------||-66661010101088888888--------|-------|-----------|-------||--------------------77777777-|-------|-4----3----|-------||-----------------------------|-------|-----------|-------|
|-----------------------------|-again-|--------------------------||-----------------------------|-riffA-|--------------------------||-----------------------------|-------|-6----9----11---5----3----||6666101010108888--88----66---|-------|--------------------------||----------------55--7755--55-|-------|-4----7----9----3----1----||-----------------------------|-------|--------------------------|
riff C guitar two|------------------------------------|-again-|-------------|-again-||------------------------------------|-riffA-|-------------|-riffA-||------------------------------------|-------|-6-----8-----|-------||------------------------------------|-------|-------------|-------||777711111111999910101010------------|-------|-4-----6-----|-------||------------------------101010109~--|-------|-------------|-------|
|------------------------------------|-again-|--------------------------||------------------------------------|-riffA-|--------------------------||------------------------------------|-------|-6----9----14---5----6----||------------------1212------1010----|-------|--------------------------||777711111111999999----111199----99--|-------|-4----7----12---3----4----||------------------------------------|-------|--------------------------|
riff D1 riff D2 both guitars|-------------------------|-------------------------||-------------------------|-------------------------||--------------------3-3-3|-------------------3-3-3-||--------------------4-4-4|-------------------4-4-4-||2-2-2-----------2---5-5-5|---2-2-2-----------5-5-5-||0-0-0---6h7p6p0-0---6-6-6|---0-0-0---6h7p6p0-6-6-6-| .
riff E both guitars|------------------------------------------------||------------------------------------------------||------------------------------------------------||------------------------------3-----------------||7-------4---------------5-----1-----5-----------||--66666---66666-3-66666-3-000---000-3-000-9-8-6-| ..... ..... ..... ... ... ... . . .
riff E cont.
|------------------------------------------------||------------------------------------------------||------------------------------------------------||-------------------------------6----------------||-7-------4---------------5-----4-----5-----8-7-5||---66666---66666-3-66666-3-000---000-3-000-6-5-3| ..... ..... ..... ... ... ...
riff F
|--------------------------------------------------------||--------------------------------------------------------||--------------------------------------------------------||------------------------------------8/11--11------------||--------------------------------------------------------||10-9-0--8--7--0--10-9--0--8--7--0-6/9---9-----10-9-0--| . . . . . . . . . . . . . . .
---------------------------------------------------------| ---------------------------------------------------------| ---------------------------------------------------------| ----------------------15\14-14-14\12-12------------------| ---------------------------------------------------------| -13-12-0--10--9--0----13\12-12-12\10-10-10-9-0-8-7-0-| . . . . . . . . . . . .
-------------------| -------------------| -------------------| -------------------| -------------------| -10-9-0--8--7-0-| . . . . . .
--------------------------------------------------------------| --------------------------------------------------------------| --------------------------------------------------------------| -9/11--11/12-12\11--11\10--10/11--11\10-10\9---9/10---10\8-8-| --------------------------------------------------------------| -6/9---9/-10-10\9---9\-8---8/-9---9\-8--8\-7---7/8----8\-6-6-|
Gtr.2 on last time ----------------------------------------------------------| ----------------------------------------------------------| ----------------------------------------------------------| -11/14-14/15-15\14-14\13-13/14-14\13-13\12-12/13-13\12-12-| ----------------------------------------------------------| -9-/1212/13-13\1212\11-11/1212\1111\10-10/1111\10-10-|
Than riff D1 Than riff E Than riff F Than riff D1 and D2 riff G
|---------break----------||------------------------||------------------------||------------------------||7-------4---------------||--66666---66666-3-66666-| ..... ..... .....
riff H
|-------------------------------------------------| |-------------------------------------------------| |-------------------------------------------------| |------3------------------------6-----------------| |5-----1------5-----------5-----4-----5-----------| |3-000---000--3-0009-8-6-3-000---000-3-000-6-5-3-| ... ... ... . . . ... ... ... . . .
riff H cont.
|--------------------------------------------| |--------------------------------------------| |--------------------------------------------| |------3-------------------------------------| |5-----1-----5-------------------------------| |3-000---000-3-000-9-8-6--8-7-5--6-5-3--5-4-2| ... ... ... . . . . . . . . . . . .
riff I
|-------------------------------------------------| |-------------------------------------------------| |-------------------------------------------------| |------3------------------------6-----------------| |5-----1------5-----------5-----4-----5-----------| |3-000---000--3-0009-8-6-3-000---000-3-000-6-5-3-| ... ... ... . . . ... ... ... . . .
riff I cont.
|-------------------------------------------------| |-------------------------------------------------| |-------------------------------------------------| |-------3-----------------------------------------| |-5-----1-----5-----------------------------------| |-3-000---000-3-000-9-8-6--11-10-8--9-8-6--8-10-12| ... ... ... . . . . . . . . . . . .
Than riff H again riff J
|-------------------------last-time--------------------------------| |------------------------------------------------------------------| |------------------------------------------------------------------| |------3------------------------6-----------------------3----------| |5-----1------5-----------5-----4-----5-----------5-----1-----5----| |3-000---000--3-0009-8-6-3-000---000-3-000-6-5-3-3-000---000-3-000| ... ... ... . . . ... ... ... . . . ... ... ...
riff K
|--------3-times----------------|-------last-time----------| |-------------------------------|--------------------------| |-------------------------------|--------------------------| |-------------------------------|--------------------------| |-------------------------------|--------------------------| |9-8-6--11-10-8--9-8-6--8-10-12-|9-8-6--8-7-5--6-5-3--5-4-2| . . . . . . . . . . . . . . . . . . . . . . . .
Than play the intro Motif, minus riff D1 and D2 riff L1 riff L2 riff L3
|---------------------|---------------------|-------||---------------------|---------------------|-------||----------------6---3|----------------6---8|-------||5-----3/5-5----------|5-----3/5-5----------|-------||---2---------2--4-2-1|---2---------2--4-2-6|-------||3--0--1/3-3--0----0--|3--0--1/3-3--0----0--|-33110-| . . . . . . .....
riff L1, riff L2, riff L1, riff L3, riff L1, riff L2, riff L3... riff M1 riff M2
|----------|-----------------------------------------------------||----------|-----------------------------------------------------||4/3-3-4---|--------------6---8-9-----3/8-8~---------------------||---------3|5----3/5-5------------5-5----------------------------||2/1-1-2---|---2--------2-4---6-7-----1/6-6~---------------------||---------1|3--0-1/3-3--0---0-----3-3--------6tr9-6tr9-6tr9-6tr9-| . . .
riff N1 riff N2 riff N3
|------guitar two-----|---------------------|-------||---------------------|---------------------|-------||----------------6---6|---------------6---11|-------||8-----8/9-8----------|8-----8/9-8----------|-------||---2---------2--4---4|---2---------2-4---9-|-------||6--0--6/7-6--0----0--|6--0--6/7-6--0---0---|-33110-| . . . . . . .....
riff N1, riff N2, riff N1, riff N3, riff N1, riff N2, riff N3, riff O1, Fill 1, End on riff P riff O
|--------------||--------------||6/7\6---7--10~||--------------||4/5\4---5--8~~||--------------|
Fill 1 (Gtr.2 only)
|-------------||-------------||-------------||8-----8/9-8--||---2---------||6--0--6/7-6--|
riff P
|---------Ending for both guitars---------||-----------------------------------------||--6---8-9-----3/8-8~---------------------||----------5-5----------------------------||2-4-2-6-7-----1/6-6~---------------------||0---0-----3-3---------6tr9-6tr9-6tr9-6tr9| . .
riff E, riff F, riff D1 and D2 4x, and let sustain:
|---Segue into Sanded Faceless---||--------------------------------||3-------------------------------||4-------------------------------||5-------------------------------||6-------------------------------|
Tap to rate this tab
 
# A B C D E F G H I J K L M N O P Q R S T U V W X Y Z