Cannibal Corpse - Disposal Of The Body tab

Cannibal Corpse - Disposal Of The Body (1998)

[Notes: This song's root is B-flat, so you can
either get yourself a 7-string and tune it a half-step
down, or tune your 6-string to B-flat - I use EB Steel
Slinkys, 11-56. Only low six are shown here.]

Fig. 1|-----------------------------------||-----------------------------------||-----------------------------------||--5------3----2----6------4----3---||--5------3----2----6------4----3---||--3------1----0----4------2----1---|
Fig. 2|---------------------------------------------------------||---------------------------------------------------------||---------------------------------------------------------||---------------------------------------------------------||--10-77777-10-77777-10-77777-10-77777-10-77777-10-77777--||---------------------------------------------------------|
|------------------------------||---------------------||------------------------------||---------------------||------------------------------||---------------------||------------------------------||---------------------||--10-77777-10h13p10-11h14p11--||--10h13p10-11h14p11--||------------------------------||---------------------|
|-------------------|--------------------------------------||-------------------|--------------------------------------||-------------------|--------------------------------------||-------------------|--------------------------------------||--10h13p10-8h11p8--|--10h13p10-11h14p11-10h13p10-11h14p11-||-------------------|--------------------------------------|
|-------------------------------------|--------------------||-------------------------------------|--------------------||-------------------------------------|--------------------||-------------------------------------|--------------------||--10h13p10-11h14p11-10h13p10-8h11p8--|--11h14p11-11h14p11-||-------------------------------------|--------------------|
|-------------------------------------------------||-------------------------------------------------||-------------------------------------------------||-------------------------------------------------||--10h13p10-10h13p10-9h12p9-9h12p9-8h11p8-8h11p8--||-------------------------------------------------|
Fig. 3[gtr. 1]|------------------------------------------------------||------------------------------------------------------||------------------------------------------------------||-----------------------555999999----------------------||--777777------------444---------888777-10~~~~~888888--||--------777666333333----------------------------------|
|------------------------------------------------------||--------------------------------------------11~~------||-----------------------------------999---999----------||-----------------------555------888---888-------------||--777777------------444---777777----------------------||--------777666333333----------------------------------|
[gtr. 2]|------------------------------------------------------||------------------------------------------------------||------------------------------------------------------||-----------------------555------666555888888666666----||--777777------------444---777777----------------------||--------777666333333----------------------------------|
|------------------------------------------------------||-----------------------------------------------888----||-----------------------------------666------666-------||-----------------------555------555---555555----------||--777777------------444---444444----------------------||--------777666333333----------------------------------|
Fig. 4|-----------------------------------------------------||-----------------------------------------------------||-----------------------------------------------------||--5------3----2----6------4----3----8------6----5----||--5------3----2----6------4----3----8------6----5----||--3------1----0----4------2----1----6------4----3----|
|-----------------------------------------------------||-----------------------------------------------------||-----------------------------------------------------||--9------7----6---11------9----8----12----10----9----||--9------7----6---11------9----8----12----10----9----||--7------5----4----9------7----6----10-----8----7----|
|----------------------------------||----------------------------------||----------------------------------||--14-----12--11---15-----13---12--||--14-----12--11---15-----13---12--||--12-----10---9---13-----11---10--|
Fig. 5|--------------------------------------------------------||--------------------------------------------------------||--------------------------------------------------------||--------------------------------------------------------||--------------------------------------------------------||--3-000-3-000-3-000-3-000-3-000-3-000-3-000-3h6p3-4h7p4-|
|---------------------------|---------------------------||---------------------------|---------------------------||---------------------------|---------------------------||---------------------------|---------------------------||---------------------------|---------------------------||--3h6p3-4h7p4-3h6p3-1h3p1--|--3h6p3-4h7p4-3h6p3-4h7p4--|
|---------------------------|---------------------------||---------------------------|---------------------------||---------------------------|---------------------------||---------------------------|---------------------------||---------------------------|---------------------------||--3h6p3-4h7p4-3h6p3-1h3p1--|--4h7p4-4h7p4-3h6p3-3h6p3--|
|---------------------------||---------------------------||---------------------------||---------------------------||---------------------------||--2h5p2-2h5p2-1h3p1-1h3p1--|
Tap to rate this tab
 
# A B C D E F G H I J K L M N O P Q R S T U V W X Y Z