Carcass - Fermenting Innards tab

Carcass - Fermenting innards

.  - palm mute                
() - Peel sessions version
/* - Pick scrape

Tuning: Standart B

Riff 1 4x|-----------------------------------||-----------------------------------||-----------------------------------||-----------------------------------||-2-2-5-----4--3-3-2-2-5-----4-3----||-0-0---3-2----1-1-0-0---3-2---1----| (. .) (. . . .)
Riff 2 1x
|-----------------------------------||-----------------------------------||-----------------------------------||-----------------------------------||-2-------2----3--3-3--6-6-6--------||-0-0-0-0-0--0-1--1-1--4-4-4--------| . . . .
Repeat Riff 1 1x Repeat Riff 2 1x Repeat Riff 1 1x Repeat Riff 2 4x Repeat Riff 1 6x Riff 3 4x
|-----------------------------------||-----------------------------------||-----------------------------------||-----------------------------------||-----------------------------------||-00000000111111110000113344443311--|
Riff 4 8x
|-----------------------------------||-----------------------------------||-----------------------------------||-----------------------------------||-2-2-6-5-2-2-3-3-------------------||-0-0-4-3-0-0-1-1-------------------|
Peel sessions version is:
|-----------------------------------||-----------------------------------||-----------------------------------||-----------------------------------||-------6-5-------3-3---------------||-00000-4-3-00000-1-1---------------| ..... .....
|-----------||-----------||-----------||-----------||-2----/*---||-0----/*---|
Repeat Riff 3 4x Repeat Riff 4 8x Riff 5 6x
|-----------------------------------||-----------------------------------||-----------------------------------||-----------------------------------||-2---6-6-3--3-5-6-5----------------||-0---4-4-1--1-3-4-3----------------|
Riff 6 4x
|-----------------------------------||-----------------------------------||-----------------------------------||-----------------------------------||-2-2-2-2-3-3-3-3-2-2-3-5-6-6-5-3---||-0-0-0-0-1-1-1-1-0-0-1-3-4-4-3-1---| (. . . . . . . . . . . . . . . .)
Repeat Riff 3 4x Repeat Riff 4 8x
|---------||---------||---------||---------||-2-------||-0-------|
End.
Tap to rate this tab
 
# A B C D E F G H I J K L M N O P Q R S T U V W X Y Z