Carcass - Blood Splattered Banner tab version 2

Band:  Carcass
Album: Wake up and Smell the Carcass
Song:  Blood Spattered Banner



.  - palm mute           /  - slide up to
\  - slide down to       ~  - vibrato
h  - hammer on           b  - Bend
p  - pull off            Suffixes for bend
t  - tap                 f  - full bend    h - half bend
ph - pinched harmonic    q  - quarter bend t - tap bend
*  - see comment         ^  - Hold bend    r release bend
x  - Stuccatto           ~  - vibrato bend
,  - slight palm mute    () - ghost note, sustained note
"  - tremolo note        <> - Trill

Tuning: B Standard

Riff A:|---------------------------||---------------------------||--------------0------------||--2---------0----0*--------||--2---2/4-4---------4-5-7--||--0-----------------2-3-5--|
|---------------------------||---------------------------||--------------0------------||--2---------0----0*-----7--||--2---2/4-4---------4-5-5--||--0-----------------2-3----|
*: it's important you let these notes ring out as long as possible
Riff B:|---------------------------------------||---------------------------------------||---------------------------------------||--2--2-----------------2---------------||--2--2--2h4/5p4\2p0-5--0--2h4/5p4\2p0--||--0--0--------------3------------------|
|---------------------------------------||---------------------------------------||---------------------------------------||--2--2---------------------------------||--2--2--2h4/5p4\2p0-5--5--2h4/5p4\2p0--||--0--0--------------3--2---------------|
|-----------------------------------------------||---------------------------------0-------------||-----------------------------------3*----------||--2--2-----------------2-----------------------||--2--2--2h4/5p4\2p0-5--0----------------5---2--||--0--0--------------3-----15\-3------/7---3-0--|
*: it's important you let these notes ring out as long as possible
|---------------||---------------||---------------||---------------||--2h4/5p4\2p0--||---------------|
Riff C:|---------------------------------------||---------------------------------------||---------------------------------------||--2--2-----------------2---------------||--2--2--2h4/5p4\2p0-5--0--2h4/5p4\2p0--||--0--0--------------3------------------|
|---------------------------------------||---------------------------------------||---------------------------------------||--2--2---------------------7-----------||--2--2--2h4/5p4\2p0-5--9-7-5-----------||--0--0--------------3--7-5-------------|
|-----------------------------------------------||---------------------------------0-------------||-----------------------------------3-----------||--2--2-----------------2-----------------------||--2--2--2h4/5p4\2p0-5--0----------------5------||--0--0--------------3-----15\-3------/7---3-0--|
|--------------------------------||------------------0-------------||--------------------3-----------||--------------------------------||-7h8------4--7-----------5------||-----6-7~-2--5-3------/7---3-0--|
Chorus:|-----------------||-----------------||-----------------||-----------------||---7h8------4-5--||-0-----6-7~-2-3--|
|-----------------||-----------------||-----------------||-----------------||---7h8------4-5--||-0-----6-7~-2-3--|
|-----------------||-----------------||-----------------||-----------------||---7h8------4-5--||-0-----6-7~-2-3--|
|-----------------||-----------------||-----------------||-----------------||---7h8------4-4/5||-0-----6-7~-2-2/3|
Riff D:|---------------------------------------||---------------------------------------||---------------------------------------||--2--2-----------------2---------------||--2--2--2h4/5p4\2p0-5--0--2h4/5p4\2p0--||--0--0--------------3------------------|
|---------------------------------------||---------------------------------------||---------------------------------------||--2--2---------------------------------||--2--2--2h4/5p4\2p0-5--5--2h4/5p4\2p0--||--0--0--------------3--2---------------|
|-----------------------------------------------||---------------------------------0-------------||-----------------------------------3-----------||--2--2-----------------2-----------------------||--2--2--2h4/5p4\2p0-5--0--15\-----------5------||--0--0--------------3---------3------/7---3-0--|
|--------------------------------||------------------0-------------||--------------------3-----------||--------------------------------||-7h8------4--7-----------5------||-----6-~--2--5-3------/7---3-0--|
Chorus x 1 Riff A x 2 Riff C x 1 Chorus x 2 (play with powerchords all through the second time)
Riff E under solo:|-------------------------||-------------------------||-------------------------||----------------------7--||--2---4-5-7--2---4-5--5--||--0---2-3-5--0---2-3-----| x 2
Chorus x 1 Riff E Chorus x 2 (play with powerchords all through the second time) Riff A x 4
Finish off with:|---------||---------||---------||---------||--2---2--||--0---0--|
END
Tap to rate this tab
 
# A B C D E F G H I J K L M N O P Q R S T U V W X Y Z