Carcass - Death Certificate tab version 2

Song: DEATH CERTIFICATE
Band: CARCASS
ALBUM: Heartwork


Tuning (Low - High): B E A D F# B


A1|---------|---------|---------|---------||-2-------|-1-------|-5-------|-4-------||-2-------|-1-------|-5-------|-4-------||-0-------|---------|-3-------|-2-------|
Guitar 1 plays A1, Guitar 2 plays A2
A2|-------------------------|-------------------------||-------------15----------|-------------14----------||----12-11-12----12-11----|--12---11-12----12-11----||-14-------------------14-|-13-------------------13-||-------------------------|-------------------------||-------------------------|-------------------------|
|-------------------------|-------------------------||-------------18----------|-------------17----------||----15-14-15----15-14----|----15-14-15----15-14----||-17-------------------17-|-16-------------------16-||-------------------------|-------------------------||-------------------------|-------------------------|
A3 Guitar 1|-------------------------|-------------------------||-2-----------------------|-1-----------------------||-2-----------------------|-1-----------------------||-0-----------------------|-------------------------|
| Guitar 2|-------------------------|-------------------------||-------------15----------|-------------14----------||----12-11-12----12-11----|----12-11-12----12-11----||-14-------------------14-|-13-------------------13-||-------------------------|-------------------------||-------------------------|-------------------------|
Guitar 1|-------------------------|-------------------------||-------------------------|-------------------------||-------------------------|-------------------------||-------------15----------|-------------14~~~~~~~~--||----13-12-13----13-12----|----13-12-13-------------||-15-------------------15-|-14----------------------|
| Guitar 2|-------------------------|-------------------------||-------------18----------|-------------17~~~~~~~~--||----15-14-15----15-14----|----15-14-15-------------||-17-------------------17-|-16----------------------||-------------------------|-------------------------||-------------------------|-------------------------|
B (both guitars)|-----------------|-----------------|-----------------|-----------------||-----------------|-----------------|-----------------|-----------------||---5-4-5---5-4-5-|---5-4-5-7-5-4-5-|---5-4-5---5-4-5-|---5-4-5-7-5-4-5-||-7-------7-------|-7---------------|-5-------5-------|-4---------------| . . . . . . . . . . . . . . . . . . . . . . . . . . . . . . . .
C1 Guitar 1|-------------------------|-------------------------||-------------12----------|-------------11----------||----10--9-10----10--9----|----10--9-10----10--9----||-12-------------------12-|-11-------------------11-|
| Guitar 2|-------------------------|-------------------------||-------------15----------|-------------14----------||----12-11-12----12-11----|----12-11-12----12-11----||-14-------------------14-|-13-------------------13-||-------------------------|-------------------------||-------------------------|-------------------------|
C2 Guitar 1|-------------------------|-------------------------||-------------15----------|-------------14----------||----13-12-13----13-12----|----13-12-13----13-12----||-15-------------------15-|-14-------------------14-|
| Guitar 2|-------------------------|-------------------------||-------------18----------|-------------17----------||----15-14-15----15-14----|----15-14-15----15-14----||-17-------------------17-|-16-------------------16-||-------------------------|-------------------------||-------------------------|-------------------------|
Repeat C1
C3 Guitar 1|-------------------------|-------------------------||-------------------------|-------------------------||-------------------------|-------------------------||-------------15----------|-------------14b(15)~~~--||----13-12-13----13-12----|----13-12-13-------------||-15-------------------15-|-14----------------------|
| Guitar 2|-------------------------|-------------------------||-------------18----------|-------------17b(18)~~~--||----15-14-15----15-14----|----15-14-15-------------||-17-------------------17-|-16----------------------||-------------------------|-------------------------||-------------------------|-------------------------|
D1|------------2h3-------------3p2-----|------------2h3------------5/6------||-------4---------------4--------3~~-|-------4----------------------------||------------------------------------|---------------------------3/4------||-2-222---22------2-222---22---------|-2-222---22------2-222-222----------| . ... .. . ... .. . ... .. . ... ...
D2|------------2h3-------------3p2-----|------------2h3-----------------||-------4---------------4--------3---|-------4------------------------||------------------------------------|-----------------2-2-4-2-5\4-2--||-2-222---22------2-222---22---------|-2-222---22------0-0-2-0-3\2-0--| . ... .. . ... .. . ... .. . . . . .
Repeat (D1+D2)
E|-----------------|-----------------|-----------------|-----------------||-4-----4---5---4-|-7-----7---8---7-|-3-----3---4---3-|-------3---4---3-||-4---------------|-7---------------|-3---------------|-----------------||-2---2---2---2---|-5---5---5---5---|-1---1---1---1---|-1-1-1---1---1---| . . . . . . . . . . . . . .
|-----------------|-----------------|-----------------|-----------------||-4-----4---5---4-|-7-----7---8---7-|-2-----2---3---2-|-------2---3---2-||-4---------------|-7---------------|-2---------------|-----------------||-2---2---2---2---|-5---5---5---5---|-0---0---0---0---|-0-0-0---0---0---| . . . . . . . . . . . . . .
Repeat E, B x 2, C1, C2, C1, C3 Repeat (D1+D2) x , E x 2, A3 Repeat B x 2 (under Steer solo)
F (under Steer solo) Play 2 times|-----------------|-----------------|-----------------|-----------------||---5-4-5---5-4-5-|---5-4-5-7-5-4-5-|---5-4-5---5-4-5-|---5-4-5-7-5-4-5-||-7-------7-------|-7---------------|-5-------5-------|-4---------------||-----------------|-----------------|-----------------|-----------------| . . . . . . . . . . . . . . . . . . . . . . . . . . . . . . . .
Steer:|---------------------------------------------------------------------------------||---------------------------------------12h14h15-12h14----12----------------------||---11---12p9--------11---12p9-11h12h14----------------14----12h14-11h12-9h11-7h9-||-9----9------9~~~-9----9---------------------------------------------------------||---------------------------------------------------------------------------------||---------------------------------------------------------------------------------|
|-----------------------------------------------------------------------------------||--------------------------------------------------------------------------------12-||--------------------------------------------9----9----11-9-11-12-11-12-14-12-14----||-9-7~~-7h9p7---------9-7-9-10-9-10-12-10-12---12---12------------------------------||-------------10-9~~----------------------------------------------------------------||-----------------------------------------------------------------------------------|
|-12p10p8-14p12p10-15p14p12-17p15p14-19p17p15-20p19p17-19~~~-12-------------------||------------------------------------------------------------15b(17)~-------------||---------------------------------------------------------------------12b(16)~----||------------------------------------------------------------------------------14-||---------------------------------------------------------------------------------||---------------------------------------------------------------------------------|
G (under Amott solo)|-------4-5--------4-5---------4-5------------------||----2----------2-----------2---------4-5---4-5-----||-0----------3-----------2----------5-----3-----5-3-||---------------------------------------------------|
|-------------------------------------------3h5p3---||---------------------------------------------------||-------4-5--------4-5---------4-5------------------||----2----------2-----------2-----------4-5---------||-0----------3-----------2----------3-5-------------||---------------------------------------------------|
Amott:|---------------------------------------------------------------------------------||-15b(17)~-15-13-12-h13p12----AH---------------------------12--------12-13--------||--------------------------14-14b(16)-14-12-11-h12p12-9~~~----14-14~--------------||---------------------------------------------------------------------------------||---------------------------------------------------------------------------------||---------------------------------------------------------------------------------|
|--------------------12-15-12----12-15-12--12-15-12----17b(19)~~------------------||-13b(15)~-12h13p12~~--------13----------13----------15----------------12-13------||-----------------------------------------------------------------14~~-------14~~-||---------------------------------------------------------------------------------||---------------------------------------------------------------------------------||---------------------------------------------------------------------------------|
|----------------------------15---------------------------------------------------||-12-13-15~~-12-13-15-15b(17)hold-(17)r15-15p13p12------13-12h13p12----12---------||--------------------------------------------------14~~-------------14----14-12---||---------------------------------------------------------------------------------||---------------------------------------------------------------------------------||---------------------------------------------------------------------------------|
|------------------------------------------14h15h17h19p17p15p14h15/19~~~~~--------||---------------------------------13h15h17----------------------------------------||-14~~~------------------12h14h16-------------------------------------------------||---------------12-14-16----------------------------------------------------------||------12-14-15-------------------------------------------------------------------||---------------------------------------------------------------------------------| pm...............
H1 Guitar 1|------------------------|------------------------||------------------------|------------------------||-2-2-2-2-2--2-2-2-2-2---|-2-2-2-2-2--2-3-3-3-3---||-0-0-0-0-0--0-0-0-0-0---|-0-0-0-0-0--0-1-1-1-1---|
| . . . . . . . . . . . . . . . . . . . .| Guitar 2|------------------------|------------------------||------------------------|------------------------||-2-2-2-2-2--2-2-2-2-2---|-5-5-5-5-5--5-6-6-6-6---||-0-0-0-0-0--0-0-0-0-0---|-3-3-3-3-3--3-4-4-4-4---| . . . . . . . . . . . . . . . . . . . .
H2 Guitar 1|------------------------|------------------------||------------------------|------------------------||-2-2-2-2-2--2-2-2-2-2---|-2-2-2-2-2--2-3-3-3-3---||-0-0-0-0-0--0-0-0-0-0---|-0-0-0-0-0--0-1-1-1-1---|
| . . . . . . . . . . . . . . . . . . . .| Guitar 2|------------------------|---------------------------------||------------------------|-------------------------AH------||-2-2-2-2-2--2-2-2-2-2---|-5-5-5-5-5--5-6-6-6--slide--7~~--||-0-0-0-0-0--0-0-0-0-0---|-3-3-3-3-3--3-4-4-4-///\\\\------| . . . . . . . . . . . . . . . . . . .
Repeat H1, D2, E
Outro Guitar 1|-----------------|-----------------|-----------------|-----------------||-4-----4---5---4-|-----------------|-2-----2---3---2-|-----------------||-4---------------|-----------------|-2---------------|-2-2-4-2-5\5-2-4-||-2---2---2---2---|-----------------|-0---0---0---0---|-0-0-2-0-3\2-0-2-|
|
| Guitar 2|-----------------|-----------------|-----------------|-----------------||-----------------|-7-----7---8---7-|-----------------|-----------------||-----------------|-7---------------|-----------------|-2-2-4-2-5\4-2-4-||-----------------|-5---5---5---5---|-----------------|-0-0-2-0-3\2-0-2-|
The End!
Tap to rate this tab
 
# A B C D E F G H I J K L M N O P Q R S T U V W X Y Z