Carcass - Rot N Roll tab

                         Rot'n'roll by CARCASS

Tune all guitars down to 2.5 steps to B

(0:00-0:08)

riff A(guitar 1) |------------------------------------|------------------------------------|-------------------9----------------|------9-----10-------10-------------|--5h6---7-7----7-7------0-0-0-0-0-0-|--------.-.----.-.------.-.-.-.-.-.-
(0:08-0:15) guitar 1 plays riff A guitar 2 plays riff B riff B
|------------------------------------|------------------------------------|-------------------5----------------|------5-----7--------7--------------|--5h6---7-7----0-0-----0-0-0-0-0-0--|--------.-.----.-.-----.-.-.-.-.-.--
(0:15-0:19) riff C
|--------------------------------------------------------------|--------------------------------------------------------------|---------------------------------------------5----------------|------5-----7-5---------8---5---5-----7--------7--------------|--5h6---7-7-----7-6-5-0-6-0-3/6---7-7----0-0-----0-0-0-0-0-0--|--------.-.-----------.---.-------.-.----.-.------------------
(0:19-0:35) riff B riff B riff C riff B riff B
|-------------------------------|-------------------------------|-------------------------------|------5-----7-5---------8---5--|--5h6---7-7-----7-6-5-0-6-0-3--|--------.-.-----------.---.----
(0:35-0:52) riff D
|-------------------------------------|-------------------------------------|-------------------------------------|----2--------3---6\3---2-------3---6-|--5-0-0-0-0--1-0-4\1-5-0-0-0-0-1-0-4-|--3---.-.-.----.-----3---.-.-.---.--- . .
(0:52-1:09) riff B riff B riff B riff C riff B riff B
|-------------------------------|-------------------------------|-------------------------------|------5-----7-5---------8---5--|--5h6---7-7-----7-6-5-0-6-0-3--|--------.-.-----------.---.----
(1:09-1:27) riff E
|-------------------------------------------------------|-------------------------------------------------------|-------------------------------------------------------|----------------3-----6/3------------------------------|--5-0-0---0-0-0-1-0-0-4/1-5-0-0-0-0-0-0-0-0-0-0-0-0-0-0|--3-.-.---.-.-.---.-.-----3-.-.-.-.-.-.-.-.-.-.-.-.-.-.
(1:27-1:36)
|---------------|---------------|---------------|----8---5---10-|--0-6-0-3-0-8--|--.---.---.----
riff B riff A
|---------------|---------------|---------------|----8---5---10-|--0-6-0-3-0-8--|--.---.---.----
(1:36-1:45) riff D (1:45-1:54) riff A
|-------------------------------|-------------------------------|----------------------------4--|------5-----7-5---------4---5--|--5h6---7-7-----7-6-5-0-5-0----|--------.-.-----------.---.----
(1:54-2:11) guitar 1 plays solo(I won't tab it) guitar 2 plays riff B riff B riff B riff C riff B riff B
|-------------------------------|-------------------------------|-------------------------------|------5-----7-5---------8---5--|--5h6---7-7-----7-6-5-0-6-0-3--|--------.-.-----------.---.----
(2:11-2:29) riff E (2:29-2:44)
|---------------|---------------|---------------|----8---5---10-|--0-6-0-3-0-8--|--.---.---.----
riff B riff A
|---------------|---------------|---------------|----8---5---10-|--0-6-0-3-0-8--|--.---.---.----
riff B riff A
|---------------|---------------|---------------|----8---5---10-|--0-6-0-3-0-8--|--.---.---.----
(2:44-3:02) riff D (3:02-3:40)
|---------------------------------------|---------------------------------------|--------------------------------------- |--7-5---7-5---------2---------3---6/3-- X3|------7-----6-5-3-5-0-0-0-0-0-1-0-4/1--|------------------3---.-.-.-.---.------
|----------------------------------------------------|----------------------------------------------------|---------------------------------------------------- |--7-5---7-5-----------------5-7-5---7-5-------2---2- |------7-----6-5-3-0-3-5-6-7-------7-----6-5-3-0-5-0-|------------------------------------------------3---
|---------------------------------------|---------------------------------------|--------------------------------------- |--7-5---7-5---------2---------3---6/3-- X3|------7-----6-5-3-5-0-0-0-0-0-1-0-4/1--|------------------3---.-.-.-.---.------
|----------------------------------------------------|----------------------------------------------------|---------------------------------------------------- |--7-5---7-5-----------------5-7-5---7-5-------2---2- |------7-----6-5-3-0-3-5-6-7-------7-----6-5-3-0-5-0-|------------------------------------------------3---
That's it! I think it's pretty close to truth. For any corrections mail me: Ziminvn@mail.ru
Tap to rate this tab
 
# A B C D E F G H I J K L M N O P Q R S T U V W X Y Z