Carlos Santana - Black Magic Woman tab

          *Medley: Black Magic Woman/Gypsy Queen (Peter Green/Gabor Szabo)*
                                     Santana
                                     Abraxas



________________________________________________________________________________________

/=slide up
\=slide down
b=bend
p=pulloff
h=hammeron
()=optional note
X=muted string

                           Black Magic Woman (Peter Green)

Intro (Organ Tab for Guitar):|------------------------------------------||-13h15----13h15----12h15--13h15----13h15--||-------14-------14--------------14--------||------------------------------------------||------------------------------------------||------------------------------------------|
|------------------------------------------||-13h15----13h15----12h15--13h15----13h15--||-------14-------14--------------14--------||------------------------------------------||------------------------------------------||------------------------------------------|
Intro (Where the Guitar comes in) (00:10):|----------------------------------------||-8p6------------------6h8p6-----8-------||---------7b9b7---------------------9b7--||----------------------------------------||----------------------------------------||----------------------------------------|
|-5---------------3-----------------5--------------3----------------10-||-----8---6\5---------6---5\3----------8---6\5---------6---5\3-----10--||-----------------------------------------------------------------10---||----------------------------------------------------------------12----||---------------------------------------------------------------12-----||--------------------------------------------------------------10------|
1st Guitar Solo:|------------------------------------------------------------------||-15-13-15b13-10-13b15--b13p10------13b15---15b13p10---------------||----------------------------------------------------12-14b12p10-9-||------------------------------------------------------------------||------------------------------------------------------------------||------------------------------------------------------------------|
|-------12h13-12-13p12p10---------------------------10-------------------||-10-13-------------------13b15--15b13-10----13b15-----13-10-------------||------------------------------------------------------------12b14b12-10-||------------------------------------------------------------------------||------------------------------------------------------------------------||------------------------------------------------------------------------|
|-------10-13-13b15-----15b17---b15----13-----18b20-\--||----11-----------------------------15-----------------||-12---------------------------------------------------||------------------------------------------------------||------------------------------------------------------||------------------------------------------------------|
|-10----------------------------------------------------------10\---||-----------------10------------------------------------------10\---||-----14b12p10-12----12--10h12p10-----------------------------10\---||---------------------------------12-10--12-10----------------------||----------------------------------------------12-11-10\8h10--------||-------------------------------------------------------------------|
Keyboard Solo (Done in D minor) Dm Got a black magic woman C Got a black magic woman Dm A# I gotta black magic woman, got me so blind I can't see
|----------------------||-----------6--5--3----||-3h5p3-----5--5--3----||----------------------||----------------------||----------------------|
Dm C Dm That she's a black magic woman, tryin' to make a devil out of me Dm Don't turn your back on me baby
|-10-10-10-----------10-10----||-10-10-10--8/10-----10-10----||-10-10-10--9/10-----10-10----||-----------------------------||-----------------------------||-----------------------------|
C Don't turn you back on me baby Dm A# Yes, don't turn your back one me baby, start messin' 'round with your tricks
|----------------------||-----------6--5--3----||-3h5p3-----5--5--3----||----------------------||----------------------||----------------------|
Dm C Dm Don't turn your back on me baby, you just might pick up my magic sticks
2nd Guitar Solo:|------------------------------13p12p10----------------------||-13b15--15-13---15b13-10---------------13p12p10-------------||------------------------------------------------13p12p10-9--||------------------------------------------------------------||------------------------------------------------------------||------------------------------------------------------------|
|------------12h13p12p10----------13b15----15b17b15p13-15b17b15-13---18b20\-||------10-13-------------13b15----------------------------------------------||-9h10----------------------------------------------------------------------||---------------------------------------------------------------------------||---------------------------------------------------------------------------||---------------------------------------------------------------------------|
|-12h13p12p10-12h13p12p10----------------------------------------------------||-------------------------13b15-15-13-10-------------10----10-13-10----------||----------------------------------------14b12p10----10-------------14b12p10-||-------------------------------------------------12----12-------------------||----------------------------------------------------------------------------||----------------------------------------------------------------------------|
|-------------------------------------------10-----------------------||-13b15--15b17--13b15---------------13b15------13-10-----------------||----------------------14b12b14----------------------12--14b12p10-9--||--------------------------------------------------------------------||--------------------------------------------------------------------||--------------------------------------------------------------------|
|------------------------------10-----------------10-12-13b15-||-10-13-b-15--13b15-15b13p10---10--10----------11-------------||----------------------------------10-10----12----------------||-------------------------------------------------------------||-------------------------------------------------------------||-------------------------------------------------------------|
|-15b17---18b20---20b22-22-------------10---------10---------10-||---------------------------10~-----13------10-13------10-13----||---------------------------------------------------------------||---------------------------------------------------------------||---------------------------------------------------------------||---------------------------------------------------------------|
|-13p10--13p10-13p10------------------------------------------------------||--------------------13p10-13p10------------------------------------------||--------------------------------10p12-10p12-------------------------9h10-||--------------------------------------------12-10-------------10h12------||-----------------------------------------------------10h11h12------------||-------------------------------------------------------------------------|
|------------------------------||-----------------------10p8---||----------------9-10--------9-||----------10h12---------------||-10h11h12---------------------||------------------------------|
Dm Got your spell on me baby C Got your spell on me baby Dm A# Yes, you got your spell on me baby, turnin' my heart into stone
|----------------------||-----------6--5--3----||-3h5p3-----5--5--3----||----------------------||----------------------||----------------------|
Dm C Dm I need you so bad, magic woman I can't leave you alone
|-------------------------------------------------||-8p6------------------6h8p6-----8----------------||---------7b9b7---------------------9b7(feedback)-||-------------------------------------------------||-------------------------------------------------||-------------------------------------------------|
________________________________________________________________________________________ Gypsy Queen (Gabor Szabo)
Intro:|-------------------------------------2--------------||-------------------------------------3--------------||-------------------------------------2--------------||-0-----0-----0-----0-----0-----0-----0--(feedback)--||----0-----0-----0-----0-----0-----0-----------------||----------------------------------------------------|
|-2h3p2-----2-----2h3p2-----2-------0-2/5-----2h3p2p0---2---||--------3--3------------3--3-----3-------------------3-3---||-----------2---------------2---------------------------2---||-----------0---------------0---------------------------0---||-----------------------------------------------------------||-----------------------------------------------------------|
|-------------------------------------2-----2/---||---3---1-1-1-1-----------------------3----------||-2---2---------0h2-----0-0-----------2----------||----------------------------4-4p2p0--0----------||------------------------------------------------||------------------------------------------------|
|-10----10----------------10----10----------10----10---------------||----13------13b15b13p10-----13----------------13------13b15b13p10-||----------------------------------14b12p10------------------------||------------------------------------------------------------------||------------------------------------------------------------------||------------------------------------------------------------------|
|-10----10---------------------------------15------15-b-17----14p10----||----13-------------------------------------------------------------15-||----------14b12p10----------9-----------------------------------------||--------------------12-10-----10-10h12--------------------------------||----------------------------------------------------------------------||----------------------------------------------------------------------|
|-22--22-22-22-22-22-22-22-22-22-22---22--22-22-22-22-22-22-22-22-22-22-||-----------------------------------------------------------------------||-----------------------------------------------------------------------||-----------------------------------------------------------------------||-----------------------------------------------------------------------||-----------------------------------------------------------------------|
|-2-----2-----2------0---3---0--2----0---3---0--2----0---3---0--2---||-3-----3-----3------1---3---2--3----1---3---2--3----1---3---2--3---||-2-----2-----2------0---0---2--2----0---0---2--2----0---0---2--2---||-0-----0-----0------0---0---2--2----0---0---2--2----0---0---2--2---||--------------------3---2---0-------3---2---0-------3---2---0------||------------------------3---------------3---------------3----------|
|-------------------------------------------------------------------------||-------------------------------------------------------------------------||-------------------------------------------------------------------------||-------------------------------------------------------------------------||-5--0-3-5--0-7-5--0-3-5--0-7-5--0-3-5--0-7-5--0-3-5--0-7-5--0-3-5--0-7-5-||-------------------------------------------------------------------------|
|--------------------------------------0--3--0----------------||--------------------------------------1--3--2----------------||--------------------------------------0--0--2----------------||--------------------------------------2--0--2----------------||-0-3-5--0-7-5--0-3-5--0-7-5--0-3-5----3--2--0-(feedback)-----||-----------------------------------------3-------------------|
Tap to rate this tab
 
# A B C D E F G H I J K L M N O P Q R S T U V W X Y Z