Carlos Santana - Aqua Marine tab

Santana
Aqua Marine (TAB)


|---------0---2-----2-||-----0-----0-----0---||---0-----------0-----||-2-----2-------------||---------------------||---------------------|
|------12-14-15p14----------------|-------12-14-15p14-----------------||12-15-------------15-15-12-15-12-|-12-15-------------15-15-12-/17-12-||---------------------------------|-----------------------------------||---------------------------------|-----------------------------------||---------------------------------|-----------------------------------||---------------------------------|-----------------------------------|
Chords for keyboard part: B A G E
bass line here|-----9---7-7-----------------|-----9---7-7--------------------------||---------------7-7-8-9---5-7-|---------------7-7-8-9---5-7----------||-7-7---7-----7---------7-----|-7-7---7-----7---------7--------------||-----------------------------|--------------------------------------|
guitar solo here|--------------------------------------------------------------------||--------------------------------------------------------------------||-----------------------------------------------------7^-7^p5p(0-----||-------------------5------------------------------------------------||-5h7-----------5-7---5h7p(5)p(0)------------------------------------||-----------------------------------5^-^53---------------------------|
|-------------------------------------------------------||----8----------------------5---------------------------||-7^---7^p5p(0)-----7^-7^-^---7-4-----------------------||---------------------------------7-7^-^7-5-7^-7^-------||-------------------------------------------------------||-------------------------------------------------------|
|----------------------------------------------------------------||----------------------------------------------------------------||-------12-----12-----12-----12-----12-----12-----12----12-------||-12-14----14~----14~----14~----14~----14~----14~----14----------||----------------------------------------------------------------||----------------------------------------------------------------|
|---------12-----------------------------------------------------||------12----15-12-15^-15^--p12------15^-15^---------------------||--14^-------------------------------14^-14^-^14-12--------------||---------------------------------------------------14-----------||----------------------------------------------------------------||----------------------------------------------------------------|
|----------------------------------------------------------------||----------------------------------------------------------------||----------------------------------------------------------------||-12-14p12-14-14-----12-14p12-14-14--12-14p12-14-14--------------||----------------------------------------------------------------||----------------------------------------------------------------|
|----------------------------12-14-14p12-----------17-17-17-17-17||----------------------12-15-------------15-14-------------------||-------------11-12-14-------------------------------------------||-12-14p12-14----------------------------------------------------||----------------------------------------------------------------||----------------------------------------------------------------|
|-14-15-17^-17--15-14-----12------------------15-----12-----12---||-------------------------15^-^-^15-12-----15^---15^----15^---15^||----------------------------------------------------------------||----------------------------------------------------------------||----------------------------------------------------------------||----------------------------------------------------------------|
|-12----12---12---12----12------------------------------12-------||----15^--15^--15^--15^----15-12---------------------12----15-12-||--------------------------------14^-^14-12----12-14^------------||-------------------------------------------14-------------------||----------------------------------------------------------------||----------------------------------------------------------------|
|-----------------||-----------------||-14^-12-14^-12---||-----------------||-----------------||-----------------|solo end
Tap to rate this tab
 
# A B C D E F G H I J K L M N O P Q R S T U V W X Y Z