Carlos Santana - Since Supernatural Acoustic tab

Acoustic


|----11-10-8-10-8---8--------------||----------------------8-8---------||----------------------------------||----------------------------------||----------------------------------||----------------------------------|
|--3-4-3---------------8-----------------||--------6-4-6----------8-6-8------------||----------------------------------------||----------------------------------------||----------------------------------------||----------------------------------------|
|----11-10-8-10-8---8--------------||----------------------8-8---------||----------------------------------||----------------------------------||----------------------------------||----------------------------------|
|---11-10-8-10-8---8------------------------------------------------||---------------------8-8------8-9-8-6-8--------8----8--------------||---------------------------------------------8---8-----------------||-------------------------------------------------------------------||-------------------------------------------------------------------||-------------------------------------------------------------------|
|---------------------------||-----8-9-8-6-8---6----6----||------------------7----7---||---------------------------||---------------------------||---------------------------|
|-------------------------------11-10-8-10-8---8------||--------8-9-8------------------------------------8-8-||-----------------------------------------------------||-----------------------------------------------------||-----------------------------------------------------||-----------------------------------------------------|
|----------------------------------------------------------||------8-9-8-6-8---8----8-----------8-9-8-6-8----6---6-----||----------------8----8------------------------7--7--------||----------------------------------------------------------||----------------------------------------------------------||----------------------------------------------------------|
|-------------||-----8-9-8---||-------------||-------------||-------------||-------------|
|-----------6----------------------------------------||---6--8--9----9-8-9-7-6-7-6-----6------8--8---------||-----------------------------8--------------8-------||----------------------------------------------------||----------------------------------------------------||----------------------------------------------------|
|----11-10-8-10-8---8---------------||------------------------8-8--------||-----------------------------------||-----------------------------------||-----------------------------------||-----------------------------------|
3x|----------------------------------------||----------------------------------------||--------10-12-10-12-10-12---------------||---13-----------------------------------||----------------------------------------||----------------------------------------|
|----11-10-8-10-8---8--------------||-----------------------8-8--------||----------------------------------||----------------------------------||----------------------------------||----------------------------------|
Tap to rate this tab
 
# A B C D E F G H I J K L M N O P Q R S T U V W X Y Z