Carlos Santana - Flor D Luna tab

Flor d'Luna - Carlos Santana                           

Tab by tmeik from www.mysongbook.com 
Exported to ASCII from Guitar Pro 4 (GP4 export bugs corrected by n_creep, sorry for any mistakes)


                                                       
E||------------------------------|--------------------|B||--------------15------13------|--------------------|G||---------14---------------15--|--14----------------|D||----12------------------------|--------------------|A||------------------------------|--------------------|E||------------------------------|--------------------|
--------------------------|--------------------|----------15--13----------|--------------------|------------------15--14r-|--------12----------|--------------------------|--------------------|--------------------------|--------------------|--------------------------|--------------------|
------------------------------|--------------------|------------------------------|--------------------|--------------12--------------|--14----------------|----14---15-----------15--14--|--------------------|------------------------------|--------------------|------------------------------|--------------------|
----------------------------|--------------------|--------------13------------|--15----------------|----14---15----------15-14--|--------------------|----------------------------|--------------------|----------------------------|--------------------|----------------------------|--------------------|
---------------------------------|--------------------------------------|-- ------------------------------|--------------------------------------|----12----14----14h15---14---12--|--12h14----------12----14----12-------|---------------------------------|--------15----------------------15----|---------------------------------|--------------------------------------|---------------------------------|--------------------------------------|
----------------------------------|--------------------|----------------------------------|--------------------|--12----------------12------------|--------------------|--------14----15---------15---11--|--12----------------|----------------------------------|--------------------|----------------------------------|--------------------|
------------------------------|--------------------|--------------15------13------|--------------------|---------14---------------15--|--14----------------|----12------------------------|--------------------|------------------------------|--------------------|------------------------------|--------------------|
--------------------------|----------------------|----------15--13----------|----------------------|------------------15--14r-|--------12--12--------|--------------------------|----------------------|--------------------------|----------------------|--------------------------|----------------------|
------------------------------|--------------------|------------------------------|--------------------|--------------12--------------|--14----------------|----14---15-----------15--14--|--------------------|------------------------------|--------------------|------------------------------|--------------------|
------------------------------|--------------------|--------------13--------------|--15----------------|----14---15-----------15--14--|--------------------|------------------------------|--------------------|------------------------------|--------------------|------------------------------|--------------------|
-------------------------------------|-------------------------------------|----12----14----14h15----14----12----|-------------------------------------|-------------------------------------|-------------------------------------|
---------------------------------------|----------------------------------|---------------------------------------|----------------------------------|12h14----12----12h14----14p12----------|--12----------------12------------|------15--------------------------15---|--------14----15---------15---11--|---------------------------------------|----------------------------------|---------------------------------------|----------------------------------|
--------------------|------------------------|--------------------|--------------------|------------------13----|--15----------------|--------------------|----14------15----------|--------------------|--12----------------|------------------------|--------------------|--------------------|------------------------|--------------------|--------------------|------------------------|--------------------|
----------13--12----------|--------------------|------------------15--15b-|--------------------|--------------------------|-----------------14-|--------------------------|--------------------|--------------------------|--------------------|--------------------------|--------------------|
----------------------------|------------------|--13h15--13-----------------|------------------|------------------14r---12--|------------------|----------------------------|------------------|----------------------------|------------------|----------------------------|------------------|
------------------------------|--------------------|------------------------------|--------------------|--------------12---14--14h15--|--14----------------|----14---15-------------------|--------------------|------------------------------|--------------------|------------------------------|--------------------|
------------------------|--------------------|------------------13----|--15----------------|----14------15----------|--------------------|------------------------|--------------------|------------------------|--------------------|------------------------|--------------------|
----15--13--12----13-15-------|--------------------|--------------------------15b-|-----------------13-|------------------------------|--------------------|------------------------------|--------------------|------------------------------|--------------------|------------------------------|--------------------|
----------------------------------------|--------------------|--13------13h15--13h15--13--------------|--------------------|------14------------------------12------|--------------------|------------------------------------15--|--14----------------|----------------------------------------|--------------------|----------------------------------------|--------------------|
--------------------------------|--------------------|------------------|--------------------------------|--------------------|------------------|------------------12------------|--------------------|------------------|------14----15---------15---11--|--12----------------|------------------|--------------------------------|--------------------|------------------|--------------------------------|--------------------|------------------|
------------------|------------------|--------------------------|------------------|------------------|--------------------------|------------------|------------------|--14----------15--14--12--|------------------|------------------|--------------------------|------------------|------------------|--------------------------|------------------|------------------|--------------------------|
------------------------|------------------------|------------------------|------------------------|------15----------------|------------------------|----------14----15--14--|--------------14----12--|----------15p-12--15----|------------------------|------------------------|------------------------|------------------------|------------------------|------------------------|------------------------|------------------------|------------------------|
--------------------------|--------------------------|--------------------------|--------------------------|--14----------15--14--12--|------------15----15--14--|--------------------------|--------14----------------|--------------------------|--------------------------|--------------------------|--------------------------|
---------------------------|--------------------------------|------15-------------------|--------------------------------|--------------13h14----12--|--12----------10-12-12-12-12-14-|---------------------------|--------------------------------|---------------------------|--------------------------------|---------------------------|--------------------------------|
----------------------------------|-----------------------------|----------------------------------|-------------------10----10--|--10-----10-----------------------|------------9--10------------|------12-----12-------------------|--------12-------------------|--------------------11p10--8--10--|----12-----------------------|----------------------------------|-----------------------------|
--10------------12------------|--10------12--------------12b-|------10----10------10----10--|------10------10----10--------|------------------------------|------------------------------|------------------------------|------------------------------|------------------------------|------------------------------|------------------------------|------------------------------|
--------12b-----12b---|----12b-----12r---10------|----------------------|----------------------13b-|----------------------|--------------------------|----------------------|--------------------------|----------------------|--------------------------|----------------------|--------------------------|
----10------------------------------|-------13-10------------------------|-------------12-10----12-10---------|-------------------12-------12------|------------------------------------|------------------------------------|
----------------------------------------|----------------------------------------|----10-12-12~-10-12-12~-10-12-12~-10-12-|----------------------------------------|----------------------------------------|----------------------------------------|
-----------------------10------------------|--------------13b------13b--|--------------------------13-10/9----------|----------------------------|--12~-10-12-12~-10-12b------------12-10----|--12-10---------------------|----------------------------------------12-|--------12------------------|-------------------------------------------|----------------------------|-------------------------------------------|----------------------------|
------13b-----13b-----|--13b-----13b-----13b---|----------------------|------------------------|----------------------|------------------------|----------------------|------------------------|----------------------|------------------------|----------------------|------------------------|
--13r---10--------10----------------|------------13b------13-10----------|---------------------------12-10----|---------------------------------12-|------------------------------------|------------------------------------|
--------13-12-----13--12------13p12p10-|---------------------------------------|--13/14--------14----------------------|---------------------------------------|---------------------------------------|---------------------------------------|
--13--13p12p10-13--13p12p10-13--13p12p10-13--13p12p10-|------------------------------------------------------|------------------------------------------------------|------------------------------------------------------|------------------------------------------------------|------------------------------------------------------|
--13-12h13p12p10-13-12h13p12p10-13-12h13p12p10-13-12h13p12p10-13-12h13p12p10---------------------------------------------------------------------------------------------------------------------------------------------------------------------------------------------------------------------------------------------------------------------------------------------------------------------------------------------------------------------------------------
-13-|-12h13p12p10-13-12h13p12p10-13-12h13p12p10-13--12--10--13-12-13-10-|----|-------------------------------------------------------------------|----|-------------------------------------------------------------------|----|-------------------------------------------------------------------|----|-------------------------------------------------------------------|----|-------------------------------------------------------------------|
--13--12--15/-17------15/-17----|--17--18--17--------20--18--17--|--------------------------------|--------------20----------------|--------------------------------|--------------------------------|--------------------------------|--------------------------------|--------------------------------|--------------------------------|--------------------------------|--------------------------------|
----17----17----18--17/---|----12--12--12----15----10--|--------------------------|----------------------------|--------------------------|----------------------------|--------------------------|----------------------------|--------------------------|----------------------------|--------------------------|----------------------------|
----13--------12------10----|----------14------12--------|----------------------------|----------------------------|----------------------------|----------------------------|
---13-13p12p10-13-13-13p12p10-13-13-13p12p10-13-13-13p12p10-|------------------------------------------------------------|------------------------------------------------------------|------------------------------------------------------------|------------------------------------------------------------|------------------------------------------------------------|
--13-12h13p12-10-13-12h13p12-10-13-13p12p10-13-13p12p10-13-13p12p10--|---------------------------------------------------------------------|---------------------------------------------------------------------|---------------------------------------------------------------------|---------------------------------------------------------------------|---------------------------------------------------------------------|
--------------------------|--------------------------|--------------------------|--------------------------|--7--10----9----12----10--|----14----12----15----14--|--------------------------|--------------------------|--5--8-----7----10----8---|----12----10----13----12--|--------------------------|--------------------------|
--------------------------|------------------------|--------------------|--------------------------|------------------13----|--15----------------|----19----18----21----19--|------14----15----------|--------------------|--------------------------|------------------------|--------------------|----17----16----19----17--|------------------------|--------------------|--------------------------|------------------------|--------------------|
----------13--13-12-------|----------------------|----------------------15b-|------------------13--|--------------------------|----------------------|--------------------------|----------------------|--------------------------|----------------------|--------------------------|----------------------|
------------------------------|------------------|------13h15-13----------------|------------------|--14----------------14r---12--|------------------|------------------------------|------------------|------------------------------|------------------|------------------------------|------------------|
------------------------------|--------------------|------------------------------|--------------------|--------------12---14--14h15--|--14----------------|----14---15-------------------|--------------------|------------------------------|--------------------|------------------------------|--------------------|
------------------------|--------------------|------------------13----|--15----------------|----14------15----------|--------------------|------------------------|--------------------|------------------------|--------------------|------------------------|--------------------|
----15--13--12----13--15--------|--------------------|---------------------------15b--|-----------------13-|--------------------------------|--------------------|--------------------------------|--------------------|--------------------------------|--------------------|--------------------------------|--------------------|
-------------------------------------------|--------------------|--13------13h15--13h15--13-----------------|--------------------|------14----------------------12h14p12-----|--------------------|----------------------------------------15-|--14----------------|-------------------------------------------|--------------------|-------------------------------------------|--------------------|
--------------------------------|--------------------|--------------------------------|--------------------|------------------12------------|--------------------|------14----15--------15---11---|--12----------------|--------------------------------|--------------------|--------------------------------|--------------------|
----------------------------|--------------------------|--------------15----13------|--------------------------|---------14-------------15--|--14r---14r---14r---14r---|----12----------------------|--------------------------|----------------------------|--------------------------|----------------------------|--------------------------|
------------------------------|----------------------|--------------15--13----------|----------------------|--14r---14r-----------15--14r-|------14p12-----------|------------------------------|----------------------|------------------------------|----------------------|------------------------------|----------------------|
------------------------------|--------------------|------------------------------|--------------------|--------------12--------------|--14----------------|----14---15-----------15--14--|--------------------|------------------------------|--------------------|------------------------------|--------------------|
----------------------------|--------------------|--------------13------------|--15----------------|----14---15----------15-14--|--------------------|----------------------------|--------------------|----------------------------|--------------------|----------------------------|--------------------|
-------------------------------|---------------------------------|-------------------------------|---------------------------------|----12---14---14h15---14---12--|--14--------12--12h14---12-------|-------------------------------|-------15--------------------15--|-------------------------------|---------------------------------|-------------------------------|---------------------------------|
------------------------------|--------------------|------------------------------|--------------------|--12------------12------------|--------------------|-------14---15-------15---11--|--12----------------|------------------------------|--------------------|------------------------------|--------------------|
----------------------------------|------------------------------------|----------------------------------|------------------------------------|----12---12h14--15----14----12----|--12h14--------12--12h14---12-------|----------------------------------|----------15--------------------15--|----------------------------------|------------------------------------|----------------------------------|------------------------------------|
----------------------------------|--------------------|----------------------------------|--------------------|--12----------------12------------|--------------------|--------14----15---------15---11--|--12----------------|----------------------------------|--------------------|----------------------------------|--------------------|
------------------------------|------------------------------------|------------------------------|------------------------------------|----12---12h14--15---14---12--|--12h14--------12--12h14---12-------|------------------------------|----------15--------------------15--|------------------------------|------------------------------------|------------------------------|------------------------------------|
----------------------------------|--------------------||----------------------------------|--------------------||--12----------------12------------|--------------------||--------14----15---------15---11--|--12----------------||----------------------------------|--------------------||----------------------------------|--------------------||
h - hammer on p - pull off b - bend r - bend and release / - slide ~ - vibratto
Tap to rate this tab
 
# A B C D E F G H I J K L M N O P Q R S T U V W X Y Z