Carlos Santana - Foo Foo tab

Foo foo
Carlos Santana
Shaman (2002)

0:04e------|----------------|--------------|-/10-8--------------|-----------|B------|-10-13-10-10-10-|-10-9---------|-------10-----------|-9---------|G--7h9-|----------------|------9---7h9-|----------9-7-7-9-9-|---9-9-7-9-|D------|----------------|--------------|--------------------|-----------|A------|----------------|--------------|--------------------|-----------|E------|----------------|--------------|--------------------|-----------|
|------------|----------|------10----8-8---------------||-10---------|-10-9-----|---10----10-----10--10-10-10\-||----9-9-7h9-|------9-9-|-9----------------------------||------------|----------|------------------------------||------------|----------|------------------------------||------------|----------|------------------------------|
0:32|---------------|-8-------------|-8----------|-7----8-8-7----12-10----||-10------------|---10-10-8-h10-|------------|---10-------10-------10-||----9-9-7-7-h9-|---------------|---10-10-10-|------------------------||---------------|---------------|------------|------------------------||---------------|---------------|------------|------------------------||---------------|---------------|------------|------------------------|
|---------------||-10-9----------||------9-9-7-h9-||---------------||---------------||---------------|
0:52|---------------|-8-------------|-8----------|-7----8-8-7----12-10----||-10------------|---10-10-8-h10-|------------|---10-------10-------10-||----9-9-7-7-h9-|---------------|---10-10-10-|------------------------||---------------|---------------|------------|------------------------||---------------|---------------|------------|------------------------||---------------|---------------|------------|------------------------|
|---------------||-10-9----------||------9-9-7-h9-||---------------||---------------||---------------|
1:06|------9----9-7----7-7--------|------9----9-7----7-7--------||---10---10-----10-----9-10-9-|---10---10-----10-----9-10-9-||-9---------------------------|-9---------------------------||-----------------------------|-----------------------------||-----------------------------|-----------------------------||-----------------------------|-----------------------------|
|----------------------------------|----------------------------------||----10-10----10-9----9-9----------|----10-10----10-9----9-9----------||-11-------11------11-----10-11-10-|-11-------11------11-----10-11-10-||----------------------------------|----------------------------------||----------------------------------|----------------------------------||----------------------------------|----------------------------------|
|------9----9-7----7-7--------|------9----9-7----7-7--------||---10---10-----10-----9-10-9-|---10---10-----10-----9-10-9-||-9---------------------------|-9---------------------------||-----------------------------|-----------------------------||-----------------------------|-----------------------------||-----------------------------|-----------------------------|
|----------------------------------|----------------------------------||----10-10----10-9----9-9----------|----10-10----10-9----9-9----------||-11-------11------11-----10-11-10-|-11-------11------11-----10-11-10-||----------------------------------|----------------------------------||----------------------------------|----------------------------------||----------------------------------|----------------------------------|
1:40|-------------|--------|-8-----|-7----8-7-7-----------|---------||-------------|-10-----|-------|---10-------10-10-----|-9-------||-7-h9-9-7-h9-|----9-9-|---9-9-|------------------9---|---9-9-9-||-------------|--------|-------|--------------------9-|---------||-------------|--------|-------|----------------------|---------||-------------|--------|-------|----------------------|---------|
|-8h10-8-------------|-12-12-10h12--12-12-10-h12--1212-10h12-||--------10-10-10-10-|----------------------------------------||--------------------|----------------------------------------||--------------------|----------------------------------------||--------------------|----------------------------------------||--------------------|----------------------------------------|
|-12rrrr-------||-13rrrr-13-12-||--------------||--------------||--------------||--------------|
4:38|-10-12-12-12----12-12-12-10-12-12-12----12-12-12-10-12-12-12-16-12-12-|-------------13----------------------13-------------------------------|----------------------------------------------------------------------|----------------------------------------------------------------------|----------------------------------------------------------------------|----------------------------------------------------------------------
-12-10-12-12-12-17-12-12-12-10-12-12-12----12-12-12-10-12-12-12----12-----------------------------------------13----------------------13--------------------------------------------------------------------------------------------------------------------------------------------------------------------------------------------------------------------------------------------------------------------------------------------
-12-12-10-12-12-12-16-12-12-12-10-12-12-12------8-8\7---77----------|---------------------------------------------10-------10-10-1010----|-------------------------------------------9------------------10--/9-|---------------------------------------------------------------------|---------------------------------------------------------------------|---------------------------------------------------------------------|
|-----|-----7----7-||-/10-|-/10---10---||-----|------------||-----|------------||-----|------------||-----|------------|
5:20|----------------------------------10-|-12-10-12-12-10-12----10-12-12-|-------------------------10-12-13----|-------------------12----------|-------------------------------------|-------------------------------|-/9~~~~-/10~~~~-12~~~-14-------------|-------------------------------|-------------------------------------|-------------------------------|-------------------------------------|-------------------------------
----10-12-12-12----10-12-12----10-12-12-12----10-12-15^-15-13-12-10-12--13-------------12----------12-------------12----------------------------------------------------------------------------------------------------------------------------------------------------------------------------------------------------------------------------------------------------------------------------------------------------------------------
-12----10-12-12-12----10-12-12----10-12-16-14-12-10-12-10-12-12----10-12-----12-------------12----------13-------------------------------12-----------------------------------------------------------------------------------------------------------------------------------------------------------------------------------------------------------------------------------------------------------------------------------------------------------
-12rrrr----|-13rrrr-10-|-----------|-----------|-----------|-----------|
5:45|-----7-|----8-12-|----10-12-|-12rrr----|-10h12/17--10h12/17--10h12/17-|---9---|-10------|-12-------|-13rrr-10-|------------------------------|-9-----|---------|----------|----------|------------------------------|-------|---------|----------|----------|------------------------------|-------|---------|----------|----------|------------------------------|-------|---------|----------|----------|------------------------------
-10h12/17--10h12/17--10h12/17--10h12/17-17h19-19rrr-19^rrr-20^-20^-20^--------------------------------------------------------------------------------------------------------------------------------------------------------------------------------------------------------------------------------------------------------------------------------------------------------------------------------------------------------------------
-20^-18^-16rrr-|-14^-14^-15-15-15-14^-14^-14^-|---------17-17-19-20----------------|------------------------------|-17-20-20---------------------------|------------------------------|------------------------------------|------------------------------|------------------------------------|------------------------------|------------------------------------|------------------------------|---------------------
-22^rrrrrrr-22-20rr-22rr-20rr-20rr-18rr-20rr18-rrr-|-10h12-12-12-10h12----------------------------------------------------|----------------------------------------------------------------------|----------------------------------------------------------------------|----------------------------------------------------------------------|----------------------------------------------------------------------|-------------------
-12-12-10h12-12-12-10-12-13-10-10-|-------------------------------------|----------------------------------|-10-10-10-10-12-12-12-13-------------|----------------------------------|-------------------------------------|----------------------------------|--------------------------7-5--------|----------------------------------|-----------------------------7-5-----|----------------------------------|--------------------------------8-5\-|
Tap to rate this tab
 
# A B C D E F G H I J K L M N O P Q R S T U V W X Y Z