Carly Rae Jepsen - Call Me Maybe tab

Carly Rae Jepsen, Call Me Maybe

Intro (played quietly on clean channel)

---------------------------------------------------------|---------------------------------------------------------|---------------------------------------------------------|--------------5---------------------------5--------------| x3--3-3-3-3-3-3---5-5-5-5-5-5-7-3-3-3-3-3-3---5-5-5-5-5-5--|---------------------------------------------------------|
Chorus Lead (Overdrive)
--------------------------------------|-----8---------------8----------------|--5--7--7-7--9--5-5--7--7-7-----------|--5--5--7-7--9--5-5--5--7-7-----------|--3-----5-5--7--3-3-----5-5-----------|--------------------------------------|
------- ------------|------- ------------|--7h9-- -(12p9p7h9)-| (x32)------- ------------|------- ------------|------- ------------|
Chorus Rhythm (Overdrive)
--------------------------------------|-----8---------------8----------------|--5--7--7-7--9--5-5--7--7-7-----------|--5--5--7-7--9--5-5--5--7-7-----------| x4--3-----5-5--7--3-3-----5-5-----------|--------------------------------------|
Verse (Clean)
---------------------------------------------------------|---------------------------------------------------------|---------------------------------------------------------|--------------5---------------------------5--------------| x3--3-3-3-3-3-3---5-5-5-5-5-5-7-3-3-3-3-3-3---5-5-5-5-5-5--|---------------------------------------------------------|Chorus Lead (Overdrive)
--------------------------------------|-----8---------------8----------------|--5--7--7-7--9--5-5--7--7-7-----------|--5--5--7-7--9--5-5--5--7-7-----------|--3-----5-5--7--3-3-----5-5-----------|--------------------------------------|
------- ------------|------- ------------|--7h9-- -(12p9p7h9)-| (x32)------- ------------|------- ------------|------- ------------|
Chorus Rhythm (Overdrive)
--------------------------------------|-----8---------------8----------------|--5--7--7-7--9--5-5--7--7-7-----------|--5--5--7-7--9--5-5--5--7-7-----------| x4--3-----5-5--7--3-3-----5-5-----------|--------------------------------------|
After Chorus Lead (Overdrive)
--15-14-----------------15-14--------------------|--------15--------------------15-----------------|-----------14-14h16-12-----------14-14h16-14h16--|-------------------------------------------------| x2-------------------------------------------------|-------------------------------------------------|
After Chorus Rhythm (Overdrive)
--------------------------------------|-----8---------------8----------------|--5--7--7-7--9--5-5--7--7-7-----------|--5--5--7-7--9--5-5--5--7-7-----------| x4--3-----5-5--7--3-3-----5-5-----------|--------------------------------------|
Bridge Both Guitars (Overdrive)
--------------------------------------|-----8---------------8----------------|--5--7--7-7--9--5-5--7--7-7-----------|--5--5--7-7--9--5-5--5--7-7-----------| x2--3-----5-5--7--3-3-----5-5-----------|--------------------------------------|
Chorus Lead (Overdrive)
--------------------------------------|-----8---------------8----------------|--5--7--7-7--9--5-5--7--7-7-----------|--5--5--7-7--9--5-5--5--7-7-----------|--3-----5-5--7--3-3-----5-5-----------|--------------------------------------|
------- ------------|------- ------------|--7h9-- -(12p9p7h9)-| (x32)------- ------------|------- ------------|------- ------------|
Chorus Rhythm (Overdrive)
--------------------------------------|-----8---------------8----------------|--5--7--7-7--9--5-5--7--7-7-----------|--5--5--7-7--9--5-5--5--7-7-----------| x4--3-----5-5--7--3-3-----5-5-----------|--------------------------------------|
After Chorus Lead (Overdrive)
--15-14-----------------15-14--------------------|--------15--------------------15-----------------|-----------14-14h16-12-----------14-14h16-14h16--|-------------------------------------------------| x2-------------------------------------------------|-------------------------------------------------|
After Chorus Rhythm (Overdrive)
--------------------------------------|-----8---------------8----------------|--5--7--7-7--9--5-5--7--7-7-----------|--5--5--7-7--9--5-5--5--7-7-----------| x4--3-----5-5--7--3-3-----5-5-----------|--------------------------------------|
Tap to rate this tab
 
# A B C D E F G H I J K L M N O P Q R S T U V W X Y Z