Carnifex – Names Mean Nothing tab

Names Mean Nothing by Carnifex
Album: Hell Chose Me

intro|--------------------------------------------------------------------------||--------------------------------------------------------------------------||--------------------------------------------------------------------------||-----------------------------------------------------------5h8p5p0-6h9p6p0||3h6p3p0-2h5p2p0----6h9p6p0-5h8p5p0----8h11p8p0-7h10p7p0-------------------||----------------00-----------------00-------------------00----------------|
Riff 1(trem. picked)|-----------------------------------------------||-----------------------------------------------||-----------------------------------------------||-------------------------------------3~~2~~----||----1~~----------0~~-------1~~-------------3~~-||-1~~---4~~-1~~3~~---3~~-1~~---4~~-1~~----------|
|-------------------------------------------||-------------------------------------------||-------------------------------------------||-------------------------------------------||----1~~----------0~~-------1~~----4-3-2-3*-||-1~~---4~~-1~~3~~---3~~-1~~---4~~-5-4-3----|
|-----------------------------------------------||-----------------------------------------------||-----------------------------------------------||-------------------------------------3~~2~~----||----1~~----------0~~-------1~~-------------3~~-||-1~~---4~~-1~~3~~---3~~-1~~---4~~-1~~----------|
|------------------------------------------||------------------------------------------||------------------------------------------||------------------------------------------||----1~~----------0~~-------1~~----4-3-2-1-||-1~~---4~~-1~~3~~---3~~-1~~---4~~-5-4-3-2-|
Riff 2|-------------------------|-------------------------||-------------------------|-------------------------||-------------------------|-------------------------||------2------------------|-------2-----------5-----||0-2-3---3-2-5-3-2-3-2----|-0-2-3---3-2-5-3-2---8-7-||-0-0-0-0-0-0-0-0-0-0-0-3-|0-0-0-0-0-0-0-0-0-0-0-0--|
|-------------------------|----------------------------||-------------------------|----------------------------||-------------------------|----------------------------||------2------------------|-------2-----5--------------||0-2-3---3-2-5-3-2-3-2----|-0-2-3---3-2---8-7-xx-xx-xx-||-0-0-0-0-0-0-0-0-0-0-0-3-|0-0-0-0-0-0---0-0--xx-xx-xx-|
Riff3|---------------------|------------------------||---------------------|------------------------||---------------------|------------------------|\|-----------------5h7-|--7--7-7--12-10h12p10---| \|8--7--8--10-8-7h8----|---------------------12-| \|-00-00-00--0-0-------|88-88-8-77--7-----------| \
\ / 2x|---------------------|------------------------| /|---------------------|------------------------| /|---------------------|------------------------| /|-----------------5h7-|--7--5------------------|/|8--7--8--10-8-7h8----|-------8--8--8p7p-------||-00-00-00--0-0-------|88-88-8-77-77----7------|
Breakdown 1G1 G2|-------| |-------||-------| |-------||-------| |-------||-------| |-------||-00-00-| |-00-00-||-11-11-| |-11-11-|
|-------------------------------------||-------------------------------------||-------------------------------------||------------------------1p0-------3*-||-00-00--0000-00-0000-00----1p0-xx----||-11-11--1111-11-1111-11--------xx----|
|-----------------------------------------||-----------------------------------------||-----------------------------------------||------------------------0h6h7h9-0h7h9h10-|(Repeat)|-00-00--0000-00-0000-00------------------||-11-11--1111-11-1111-11------------------|
Riff 4G1 & G2|------------------------------------||------------------------------------||------------------------------------||------------------------------------||------------------------------------||-1~11-1~11-1~4~1~2~-22-2~22-2~5~4~2~|pm ** ** ** **
G1|------------------------------------||------------------------------------||------------------------------------||------------------------------------||------------------------------------||-1~11-1~11-1~4~1~2~-22-2~22-2~5~4~2*|pm ** ** ** **
G2|------------------------------------||------------------------------------||------------------------------------||------------------------------------||------------------------------------||-4~44-4~44-4~7~4~5~-55-5~55-5~8~7~5*|pm ** ** ** **
Breakdown 2|---------------------------------------------------------||---------------------------------------------------------||---------------------------------------------------------||---------------------------------------------------------|(Repeat)|-0000--0000-0-0000---0000-0000-0000--0000-0-0000---0-----||-0000--0000-0-0000---0000-0000-0000--0000-0-0000---0-1rb-|pm**** **** * **** **** **** **** **** * **** *
Repeat: Riff 1 Riff 3 Breakdown 1 Riff 4 (variations on this part I dindt tab, figure it out urself.) Breakdown 2 Thats all people, hope u enjoy...
Please rate this tab:
x1.0