Carter Family - Wildwood Flower tab version 2

----------------------------------------------------------------------------
		   Wildwood Flower - Carter Family
----------------------------------------------------------------------------

Tabbed by: Dave S. 
Email: prime-prine@hotmail.com

Tuning: Standard




Guitar (E A D G B E) (CAPO 7th Fret)
Banjo  (G D G B D) 

Q=150 Guitar|----------0-0-|---------------|-----------1-1-|-----------0-0-|----0-0----0-0-||-------1--1-1-|-----1-----1-1-|-----------0-0-|-----------1-1-|----1-1----1-1-||-------0--0-0-|-0h2----0--0-0-|--------0--0-0-|-----------0-0-|----0-0----0-0-||-2--3---------|--------2--2-2-|-2h3-2--0--0---|-2p0-----------|-2-------------||--------------|---------------|---------------|-----2--3------|--------3------||--------------|---------------|---------------|---------------|---------------|
|-------0--0-0-|-0--------0-0-|----0-0-----1-1-|----------0--|-----------0-0-||----1--1--1-1-|----3--1--1-1-|----1-1-----1-1-|-1--------1--|-----------1-1-||----0-----0-0-|----------0-0-|-0--0-0-0h2-2-2-|----2--0--0--|-----------0-0-||-2------------|--------------|----------------|-------------|----0--0h2-----||-3------------|--------------|----------------|-------------|-3-------------||--------------|--------------|----------------|-------------|---------------|
|-----0-0-----0--|----------1-1-|-----------0-0-|----0-0----0-0-||-----1-1-----1--|----------0-0-|-----------1-1-|----1-1----1-1-||-----0-0-----0--|-0--------0-0-|-----------0-0-|----0-0----0-0-||-0h2-----0h2----|----2--0--0---|-2p0-----------|-2-------------||----------------|--------------|-----2--3------|--------3------||----------------|--------------|---------------|---------------|
Guitar|------------0---|-----0-------0---||------------1---|-----1-------1---||------------0---|-----0-------0---||------------2---|-----2-------2---||---------3------|---------3-------||----------------|-3---------------|
|Banjo|-0---0---0------|-2-----0---0-----||-0---1---3----3-|-----3---0-----1-||----------------|-----------------||----------------|-----------------||-0---0---0--0---|---0---------0---|
|-----0-------1---|-----1------0--|-----0-------0---||-----1-------0---|-----0------1--|-----1-------1---||-----0-------0---|-----0------0--|-----0-------0---||-----2-------0---|-----0------2--|-----2-------2---||-----------------|-2-------3-----|---------3-------||-3-------3-------|---------------|-3---------------|
|
|-0-----0-----4---|---4-----------|---------------0-||-----0-----3-----|-3-----3-------|-----------------||---------2-----4-|-----2---0-----|-4p2p0-----0-----||-----------------|---------------|-------2p0-------||---0-------------|------------0--|-----------------|
|----0-----0---|-----0-------0---|-----0-------1---||----1-----1---|-----1-------1---|-----1-------0---||----0-----0---|-----0-------0---|-----0-------0---||----2-----2---|-----2-------2---|-----2-------0---||-------3------|---------3-------|-----------------||-3------------|-3---------------|-3-------3-------|
|
|-0--0--0------|-2-----0---0-----|-0-----0-----4---||-0--1--3----3-|-----3---0-----1-|-----0-----3-----||--------------|-----------------|---------2-----4-||--------------|-----------------|-----------------||-0--0--0--0---|---0---------0---|---0-------------|
|-----1------0--|-------0------0----||-----0------1--|-------1------1----||-----0------0--|-------0------0----||-----0------2--|-------2------2----||-2-------3-----|-----------3-------||---------------|-3-----------------|
|
|---4-----------|--------------0----||-3-----3-------|-------------------||-----2---0-----|-4p2p0-----0-------||---------------|-------2p0---------||------------0--|-------------------|
|-----0-------0---|-----0-------0---||-----1-------1---|-----1-------1---||-----0-------0---|-----0-------0---||-----2-------2---|-----2-------2---||-3---------------|-3---------------||---------3-------|---------3-------|
|
|-----9---7-----7-|-----5---3-----3-||---8-------7-----|---5-------3-----||-------------8---|-------------0---||-----------------|-----------------||-0-----0---------|-0-----0---------|
|-----1-------1---|----0-----0--|-----0-------0---||-----1-------1---|----1-----1--|-----1-------1---||-----2-------2---|----0-----0--|-----0-------0---||-----3-------3---|----2-----2--|-----2-------2---||---------3-------|-3-----------|-3---------------||-1---------------|-------3-----|---------3-------|
|
|-----2-----1-----|-0-----------|-------0-------0-||---1-----1-----1-|-------------|-----------------||-----------------|-------0--2--|-2h4-----2h4-----||-----------------|-------------|-----------------||-0-----0-----0---|----0--------|-----0-------0---|
|-----0-------0---|-----1-------1---|----0--------0---|-0----||-----1-------1---|-----0-------0---|----1--------1---|-1----||-----0-------0---|-----0-------0---|----0--------0---|-0----||-----2-------2---|-----0-------0---|----2--------2---|-2----||-3---------------|---------2-------|-3---------------|-3----||---------3-------|-3---------------|-------3---------|------|
|
|-----4---0-----0-|-------0---------|-----------------|-0----||---5-------0-----|---0-------0---0-|-----------------|-0----||-------------0---|-----5---5-------|-0-----4p2p0-----|-0----||-----------------|-7-----------7---|-------------2p0-|-0----||-0-----0---------|-----------------|----0------------|-0----|
| / slide up | \ slide down | h hammer-on | p pull-off | ~ vibrato | + harmonic | x Mute note ===========================================================================
Tap to rate this tab
 
# A B C D E F G H I J K L M N O P Q R S T U V W X Y Z