Casari - The Heart Of Davey Jones tab

http://www.myspace.com/casari

=====================================
 |Casari-The Heart Of Davey Jones.|
=====================================
~~DROP D~~

i know its not EXACT but this is the best i could do.
h=Hammer on.
<5>=harmonic.
p=palm mute.

|--------------------------------------------------------------||---6h5--6h5--5----6h5--5---------6h5--6h5--5-----6h5--8-8-8---||------5----5---------5--------------5----5----------5---------||-0-------------0---------0000000-------------0----------------||-0-------------0---------0000000-------------0----------------||-0-------------0---------0000000-------------0----------------|
|-------------------------------------------------||---6h5--6h5--5----6h5--5---------6h5--6h5--5-----||------5----5---------5--------------5----5-------||-0-------------0---------0000000-------------0---||-0-------------0---------0000000-------------0---||-0-------------0---------0000000-------------0---|
I DUG THIS GRAVE !!!
|-------------------------------------------------------------------||-------------------------------------------------------------------|\|-------------------------------------------------------------<5>---| \ (X2)|-0-0--0000000000--8-8888888888--3-3-333333333---22222-2-2-2--------| /|-0-0--0000000000--8-8888888888--3-3-333333333---22222-2-2-2--------|/|-0-0--0000000000--8-8888888888--3-3-333333333---22222-2-2-2--------|
|-------------------------------------||-------------------------------------|\|-------------------------------------| \ (X2)|-------------------------------------| /|-00000-0-0-0-00000-88888-8-8-8-88888-|/|-00000-0-0-0-00000-88888-8-8-8-88888-|
|-------------------------------------||-------------------------------------||-------------------------------------||-0-p00000000000000-8-p88888888888888-||-0-p00000000000000-8-p88888888888888-||-0-p00000000000000-8-p88888888888888-|
|-----------------------------------||-----------------------------------|\|-----------------------------------| \ (X2)|-0-0-0-0-0-0-0-0--8-8-8-8-8-8-8-8--| /|-0-0-0-0-0-0-0-0--8-8-8-8-8-8-8-8--|/|-0-0-0-0-0-0-0-0--8-8-8-8-8-8-8-8--|
|-----------------------------------------------------------||-----------------------------------------------------------|\|------10-9-------------10-9-10-----------10-9--------------| \ (X2)|-0-0------10-----10-12--------10-0--0-0------10--888-8h10--| /|-0-0--------10-12-------------------0-0----------888-8h10--|/|-0-0--------------------------------0-0----------888-8h10--|
After the second time play this,|-----------------------------||-----------------------------||-----------------------------||-7-7-777-7777777--888888888--||-7-7-777-7777777--888888888--||-7-7-777-7777777--888888888--|
I DUG THIS GRAVE !!!
|-------------------------------------------------------------------||-------------------------------------------------------------------|\|-------------------------------------------------------------<5>---| \ (X2)|-0-0--0000000000--8-8888888888--3-3-333333333---22222-2-2-2--------| /|-0-0--0000000000--8-8888888888--3-3-333333333---22222-2-2-2--------|/|-0-0--0000000000--8-8888888888--3-3-333333333---22222-2-2-2--------|
|----------------------------------------------------------||----------------------------------------------------------|\|------5h0---------------------------5h0-------------------| \ (X2)|-0-0-----3h0-2h0-3h0-2h0-2h3-0--0-0----3h0-2h0--888-8h10--| /|-0-0----------------------------0-0-------------888-8h10--|/|-0-0----------------------------0-0-------------888-8h10--|
|-----------------------------------------------||-----------------------------------------------|\|------5h0----------5h0-------------------------| \ (X2)|-0-0-----3h0--0-0-----3h0--0-000---------------| /|-0-0----------0-0----------0-000---------------|/|-0-0----------0-0----------0-000---------------|
|-----------------------------------------------------||-----------------------------------------------------|\|------5h0------------5h0----------5h0-------------5~-| \ (X2)|-0-0-----3h5-0--0-0----3h5-0--0-0----3h5-0---0000----| /|-0-0------------0-0-----------0-0------------0000----|/|-0-0------------0-0-----------0-0------------0000----|
|-----------------------------------------------------------||-----------------------------------------------------------|\|------10-9-------------10-9-10-----------10-9--------------| \ (X2)|-0-0------10-----10-12--------10-0--0-0------10--888-8h10--| /|-0-0--------10-12-------------------0-0----------888-8h10--|/|-0-0--------------------------------0-0----------888-8h10--|
After the second time play this,
|------------------||------------------||------------------| |-7-8-7-8-7-8-7-8--| |-7-8-7-8-7-8-7-8--||-7-8-7-8-7-8-7-8--|
BREAKDOWN|-------------------------------------------------------------------||-----------------9-9-9-9-9-9-9-9-----------------------------------|\|-----------------1212121212121212----------------9h10-9h10-9h10/17-| \ (X4)|-0-0-0-0-000000-------------------0-0-0-0-000000-------------------| /|-0-0-0-0-000000-------------------0-0-0-0-000000-------------------|/|-0-0-0-0-000000-------------------0-0-0-0-000000-------------------|
|-------------------------------------------------------------------||-------------------------------------------------------------------|\|-------------------------------------------------------------<5>---| \ (X2)|-0-0--0000000000--8-8888888888--3-3-333333333---22222-2-2-2--------| /|-0-0--0000000000--8-8888888888--3-3-333333333---22222-2-2-2--------|/|-0-0--0000000000--8-8888888888--3-3-333333333---22222-2-2-2--------|
|---------------------------------||---------------------------------||-----------9------------9--9--9--| (X4)|-----------12-----------12-12-12-||---------------------------------||-00000000-----00000000-----------|
|---------------------------------||---------------------------------||---------------------------------| |---------------------------------||---------------------------------||-00000000-0-0-0------------------|
Again not exact but this is my first tab. ENJOI!
Tap to rate this tab
 
# A B C D E F G H I J K L M N O P Q R S T U V W X Y Z