Celtic Frost - Inner Sanctum tab

Band:  Celtic Frost
Album: Into The Pandemonium
Song:  Inner Sanctum

Copyright (c)  

Transcribed By: Graham Cray
Email:          darkfuneral70@hotmail.com


.  - palm mute           /  - slide up to
\  - slide down to       ~  - vibrato
h  - hammer on           b  - Bend
p  - pull off            Suffixes for bend
t  - tap                 f  - full bend    h - half bend
ph - pinched harmonic    q  - quarter bend t - tap bend
*  - see comment         ^  - Hold bend    r release bend
x  - Stuccatto           ~  - vibrato bend
,  - slight palm mute    () - ghost note, sustained note
"  - tremolo note        <> - Trill

Tuning - Standard (E,A,D,G,B,E)

Intro

Riff A - x2

|-------|-----------------------------------------------------------||-------|-----------------------------------------------------------||-------|-----------------------------------------------------------||-------|------------------5-5-5\4\3------------------5-5-5/6/7-----||-------|---------------4--3-3-3\2\1---------------4--3-3-3/4/5-----||---8---|---0-0-0-0-0-0-2--------------0-0-0-0-0-0-2----------------| . . . . . . . . . . . . .
Riff B - x2 (2nd time ends differently) When drums start....
|-------------------------------------------------------------------||-------------------------------------------------------------------||-------------------------------------------------------------------||----------------5-5-5\4\3----------------5-5-5/6/7-----------------||---2---------4--3-3-3\2\1---2---------4--3-3-3/4/5-----------------||---0-0-0-0-0-2--------------0-0-0-0-0-2----------------------------| . . . . . . . . . .
2nd time
|-------------------------------------------------------------------||-------------------------------------------------------------------||-------------------------------------------------------------------||----------------5-5-5\4\3----------------5-5-5/6/7--6-5------------||---2---------4--3-3-3\2\1---2---------4--3-3-3/4/5--4-3------------||---0-0-0-0-0-2--------------0-0-0-0-0-2----------------------------| . . . . . . . . . .
Riff C - x4
|-------------------------------------------------------------------||-------------------------------------------------------------------||-------------------------------------------------------------------||----------------------------5-4-----------------3-3-3-3-3/5--------||---5-5-5-5-5/6\4/5--5-5-5-5-3-2-2-2-2-2-2-3-----1-1-1-1-1/3--------||---3-3-3-3-3/4\2/3--3-3-3-3-----0-0-0-0-0-1-(0)--------------------| . . . . . . . . . . . . .
Riff D - x4
|----------------------------------||----------------------------------||----------------------------------||----------------------------------||---4-------5-------6-------7-8----||---2-22222-3-22222-4-22222-5-6----| ..... ..... .....
Riff E - x4
|-----------------------------||-----------------------------||-----------------------------||-----------------------------||---4-4-4-5-4-4-6-4-4-7-8-----||---2-2-2-3-2-2-4-2-2-5-6-----|
Riff F - x4
|----------------------------------------------------||----------------------------------------------------||----------------------------------------------------||----------------------------------------------------||----------------------8--------------------8/9/10---||---000000000000000000-6-000000000000000000-6/7/8----|
Riff G - x4
|------------------------------||------------------------------||------------------------------||------------------------------||---8-8-8--9-8--7-7-7--9-10----||---6-6-6--7-6--5-5-5--7-8-----|
Riff H - x2
|-------------------------------------------------------------------||-------------------------------------------------------------------||-------------------------------------------------------------------||---------------7-------------7-------------7--------------7\6/7----||---------------5-------------5-------------5--------------5\4/5----||---00000000000---00000000000---00000000000---00000000000-----------|
Back to Riff E - x4
|-----------------------------||-----------------------------||-----------------------------||-----------------------------||---4-4-4-5-4-4-6-4-4-7-8-----||---2-2-2-3-2-2-4-2-2-5-6-----|
Back to Riff F - x4
|----------------------------------------------------||----------------------------------------------------||----------------------------------------------------||----------------------------------------------------||----------------------8--------------------8/9/10---||---000000000000000000-6-000000000000000000-6/7/8----|
Back to Riff G - x4
|------------------------------||------------------------------||------------------------------||------------------------------||---8-8-8--9-8--7-7-7--9-10----||---6-6-6--7-6--5-5-5--7-8-----|
Back to Riff H - x2 (Let last chord ring out on 2nd time)
|-------------------------------------------------------------------||-------------------------------------------------------------------||-------------------------------------------------------------------||---------------7-------------7-------------7--------------7\6/7----||---------------5-------------5-------------5--------------5\4/5----||---00000000000---00000000000---00000000000---00000000000-----------|
Riff I - x4
|-------------------------------------||-------------------------------------||-------------------------------------||---7-6-7-9---------------------------||---5-4-5-7--2-2-2---2-2-2---2-2-2----||------------0-0-0-3-0-0-0-3-0-0-0----| . . . . . . . . . . .
Riff J - x4
|-------------------------------------------------------------------||-------------------------------------------------------------------||-------------------------------------------------------------------||---7-6-5-----------------------------------------------------------||---5-4-3-2-2-2-2-7/8-----9/10/11-----------------------------------||---------0-0-0-0-5/6-(0)-7/8-/9------------------------------------| . . . .
Riff K - x4
|-------------------------------------------------------------------||-------------------------------------------------------------------||-------------------------------------------------------------------||-----------------3-4-3-4------------------3-4-5/6/7----------------||---2-2-2-2-2-2-2-1-2-1-2--2-2-2-2-2-2-2-2-1-2-3/4/5----------------||---0-0-0-0-0-0-0----------0-0-0-0-0-0-0-0--------------------------| . . . . . . . . . . . . . .
Riff L - x4
|-------------------------------------------------------------------||-------------------------------------------------------------------||-------------------------------------------------------------------||---2-------------8-7-8-7-2---------------5-6-7--5-6-7--------------||---0-0-0-0-0-0-0-6-5-6-5-0-0-0-0-0-0-0-0-3-4-5--3-4-5--------------||-------------------------------------------------------------------| . . . . . . . . . . . . .
Back to Riff H - x2
|-------------------------------------------------------------------||-------------------------------------------------------------------||-------------------------------------------------------------------||---------------7-------------7-------------7--------------7\6/7----||---------------5-------------5-------------5--------------5\4/5----||---00000000000---00000000000---00000000000---00000000000-----------|
Riff M - x4 (Under solo)
|-------------------------||-------------------------||-------------------------||--------------4-5-4/5----||---2----------2-3-2/3----||---0-00000000------------|
Riff N - x4
|----------------||----------------||----------------||-----7/8--------||---7-5/6-7\6----||---5-----5\4----|
Back to Riff M - x4
|-------------------------||-------------------------||-------------------------||--------------4-5-4/5----||---2----------2-3-2/3----||---0-00000000------------|
Back to Riff N - x4
|----------------||----------------||----------------||-----7/8--------||---7-5/6-7\6----||---5-----5\4----|
Back to Riff M - x4
|-------------------------||-------------------------||-------------------------||--------------4-5-4/5----||---2----------2-3-2/3----||---0-00000000------------|
Back to Riff E - x4
|-----------------------------||-----------------------------||-----------------------------||-----------------------------||---4-4-4-5-4-4-6-4-4-7-8-----||---2-2-2-3-2-2-4-2-2-5-6-----|
Back to Riff F - x4
|----------------------------------------------------||----------------------------------------------------||----------------------------------------------------||----------------------------------------------------||----------------------8--------------------8/9/10---||---000000000000000000-6-000000000000000000-6/7/8----|
Back to Riff G - x4
|------------------------------||------------------------------||------------------------------||------------------------------||---8-8-8--9-8--7-7-7--9-10----||---6-6-6--7-6--5-5-5--7-8-----|
Back to Riff H - x2
|-------------------------------------------------------------------||-------------------------------------------------------------------||-------------------------------------------------------------------||---------------7-------------7-------------7--------------7\6/7----||---------------5-------------5-------------5--------------5\4/5----||---00000000000---00000000000---00000000000---00000000000-----------|
Riff O - x
|-------------------------------------------------------------------||-------------------------------------------------------------------||-------------------------------------------------------------------||-----4-5-4--------------4-5-4-------------4-5-4--------------------||---2-2-3-2-111111111--2-2-3-2-111111111-2-2-3-2-111111111--2-2-----||---0------------------0-----------------0------------------0-0--2/-|
Tap to rate this tab
 
# A B C D E F G H I J K L M N O P Q R S T U V W X Y Z