Censored In Color – Reverse This Day tab

guitar 1
(thompson)

INTRO

----------------------------0-----------------------------5--|----------6---5-------------------------6---5----------------|------5/7---7---5-0-----6-----6-----5/7---7---5-0-----6------|--------------------5/7---7-----------------------5/7---7----|--3/5---------------------------3/5--------------------------|-------------------------------------------------------------|
INTRO (continues)
----------------------------0-----------------------------12-----|----------6---5-------------------------6-----------10-13----13--|------5/7---7---5-0-----6-----6-----5/7---7------10--------------|--------------------5/7---7--------------------------------------|--3/5---------------------------3/5------------------------------|--------------------------------------------8/10-----------------|
VERSE
------------------------------------------------------------------|--------17b18r17--------------------------------------------------|-----14----------17-14-15p14/12-15-14-12--------------------------|--15-------------------------------------15-14-11-11b-11b-11r-11--|------------------------------------------------------------------|------------------------------------------------------------------|
VERSE (continues)
--------------------------------------------------20-20-20-17--|--------17b18r17----------------------------17-18--------------|-----14----------17-14-15p14/12-15-14-12-14--------------------|--15-----------------------------------------------------------|---------------------------------------------------------------|---------------------------------------------------------------|
CHORUS
--12p0------13p0-12p0-12p0------13p0-12p0-12p0--|-------13p0----------------13p0-----------------|------------------------------------------------|------------------------------------------------|------------------------------------------------|------------------------------------------------|
CHORUS (continues)
------13----13---------13----13--------12----12--------12----12------|----15----15----15---15----15----15--15----15----15--15----15----15--|--14----14----14---14----14----14--13----13----13--13----13----13----|---------------------------------------------------------------------|---------------------------------------------------------------------|---------------------------------------------------------------------|
AFTER CHORUS
------------------0---------------------------0-----------|--6-5-5-6-6---3-----3---3--6-5-5-6-6----10------10----10--|--7-5-5-7-7-3---3-----3----7-5-5-7-7-10----10------10-----|----------------------------------------------------------|----------------------------------------------------------|----------------------------------------------------------|
(continues)
------------------0-----------------------|--6-5-5-6-6---3-----3---3--6-5-5-6-6-11~--|--7-5-5-7-7-3---3-----3----7-5-5-7-7-12~--|------------------------------------------|------------------------------------------|------------------------------------------|
INTRO
----------------------------0-----------------------------5--|----------6---5-------------------------6---5----------------|------5/7---7---5-0-----6-----6-----5/7---7---5-0-----6------|--------------------5/7---7-----------------------5/7---7----|--3/5---------------------------3/5--------------------------|-------------------------------------------------------------|
INTRO (continues)
----------------------------0-----------------------------12-----|----------6---5-------------------------6-----------10-13----13--|------5/7---7---5-0-----6-----6-----5/7---7------10--------------|--------------------5/7---7--------------------------------------|--3/5---------------------------3/5------------------------------|--------------------------------------------8/10-----------------|
VERSE
------------------------------------------------------------------|--------17b18r17--------------------------------------------------|-----14----------17-14-15p14/12-15-14-12--------------------------|--15-------------------------------------15-14-11-11b-11b-11r-11--|------------------------------------------------------------------|------------------------------------------------------------------|
VERSE (continues)
--------------------------------------------------20-20-20-17--|--------17b18r17----------------------------17-18--------------|-----14----------17-14-15p14/12-15-14-12-14--------------------|--15-----------------------------------------------------------|---------------------------------------------------------------|---------------------------------------------------------------|
CHORUS
--12p0------13p0-12p0-12p0------13p0-12p0-12p0--|-------13p0----------------13p0-----------------|------------------------------------------------|------------------------------------------------|------------------------------------------------|------------------------------------------------|
CHORUS (continues)
------13----13---------13----13--------12----12--------12----12------|----15----15----15---15----15----15--15----15----15--15----15----15--|--14----14----14---14----14----14--13----13----13--13----13----13----|---------------------------------------------------------------------|---------------------------------------------------------------------|---------------------------------------------------------------------|
BRIDGE
--20-20-20-20-17-17-17-17-18-18-18-18-15-17-15-17--|---------------------------------------------------|---------------------------------------------------|---------------------------------------------------|---------------------------------------------------|---------------------------------------------------|
BRIDGE (continues)
--20-20-20-20-17-17-17-17-18-17-18-17----17---17--|--------------------------------------18----18----|--------------------------------------------------|--------------------------------------------------|--------------------------------------------------|--------------------------------------------------|
Please rate this tab:
x1.0