Censored In Color - Intro Feat Nikki tab

Guitar 1
(thompson)

-----13----13--------------------------------|--18----17----17-----------------------------|-----------------17-17-14-17-14--------------|--------------------------------17-15-14-15--|---------------------------------------------| x2---------------------------------------------|
---------------------------------------------------|---------------------------------------------------|--14-------15-------14-------12-------14-------17--|-----15-15----15-15----15-15----15-15----15-15-----|---------------------------------------------------| x2---------------------------------------------------|
-----13----13----------17-----------|--18----17----17-------------17brb--|-----------------17-17----17--------|------------------------------------|------------------------------------| x3------------------------------------|
-----13----13----------17----20------|--18----17----17----------------18\--|-----------------17-17----17---------|-------------------------------------|-------------------------------------|-------------------------------------|
-------------------------------------------------8----|--------------------------------------10-------8---8--|----------10h12p10----9br------10---10---10--9--------|-----12------------12-----10/12---12------------------|------------------------------------------------------|--12----12--------------------------------------------|
-------------------------------------------------17---|--------------------------------------10-------18-----|----------10h12p10----9br------10---10---10--17-------|-----12------------12-----10/12---12------------------|------------------------------------------------------|--12----12--------------------------------------------|
-------------------------------------------------8----|--------------------------------------10-------8---8--|----------10h12p10----9br------10---10---10--9--------|-----12------------12-----10/12---12------------------|------------------------------------------------------|--12----12--------------------------------------------|
-------------------------------------------------20p17--|--------------------------------------10-------18-------|----------10h12p10----9br------10---10---10--17---------|-----12------------12-----10/12---12--------------------|--------------------------------------------------------|--12----12----------------------------------------------|
-------0-----0-------------------------|---6-----6---6-------------------------|-----0-----0-0-------------------------|--0----------7-------9br---------12br--|----------------10----------12---------| x4---------------8---8-----10----12------|
Guitar 2 (jovan)
-----------------------------------|-------6-----------10\--------5/6--|-----------------------------------|----3-----------7-----------2------|--5-----------8-----------3--------| x2-----------------------------------|
----------------8------------------------|-------6--5brbr----------10\--------5/6--|-----------------------------------------|----3-----------------7-----------2------|--5-----------------8-----------3--------|-----------------------------------------|
-----------------------------------------|-------6--5brbr----------10\--------5/6--|----------------5------------------------|----3-----------------7-----------2------|--5-----------------8-----------3--------|-----------------------------------------|
--------------------------------------------------|----------------------------------10---------5----|--------5/7\5-0-2br------------------10--------5--|----3--------------------3------7----------2------|--5---5--------------3/5---5--8----------3--------|--------------------------------------------------|
--------------------------------------------------|----------------------------------10---------5----|--------5/7\5-0-2br------------------10--------5--|----3--------------------3------7----------2------|--5---5--------------3/5---5--8----------3--------|--------------------------------------------------|
----------------------------------------------------|----------------------------------10/11--------5/6--|--------5/7\5-0-2br--------------------------5------|----3--------------------3------7----------2--------|--5---5--------------3/5---5--8----------3----------|----------------------------------------------------|
--------------------------------------------------|----------------------------------10---------5----|--------5/7\5-0-2br------------------10--------5--|----3--------------------3------7----------2------|--5---5--------------3/5---5--8----------3--------|--------------------------------------------------|
------------------------------------------------|----------------------------------10---------5--|--------5/7\5-0-2br---------------10---------5--|----3--------------------3------7----------2----|--5---5--------------3/5---5--8----------3------|------------------------------------------------|
---------------------8\-----------10\--------13\--|--------------------------------------------------|--------------------------------------------------|--------------------------------------------------|--------------------------------------------------|--------------------------------------------------|
Tap to rate this tab
 
# A B C D E F G H I J K L M N O P Q R S T U V W X Y Z