Ceremony - Throwing Bricks tab

violence violence
bridge nine records
www.ceremonyhc.com
www.myspace.com/ceremony
standard tuning half-step down


------------------------------------------------|------------------------------------------------|-6--6--6----------------------------------------|-6--6--6--5-5-5-5-5-5-5-5-----------------------|-4--4--4--5-5-5-5-5-5-5-5-----------------------|----------3-3-3-3-3-3-3-3-----------------------|
------------------------------------------------|------------------------------------------------|-6---------6---------6--------------------------|-6-x4-6----6-x4-6----6-x4-6----5----------------|x2-4----6-x4-4----6-x4-4----6-x4-5-x8-------------|------4---------4---------4----3----------------|
------------------------------------------------|------------------------------------------------|-6~--------6~-----------------------------------|-6~-6~-5~--6~-6~-5-5-5-5------------------------|-4~-6~-5~--4~-6~-5-5-5-5------------------------|----4~-3~-----4~-3-3-3-3------------------------|
------------------------------------------------|------------------------------------------------|-6-6-6-6-6-6-6-6--------------------------------|-6-6-6-6-6-6-6-6-6-6-6-6-5-5-5-5----------------|x3-4-4-4-4-4-4-4-4-6-6-6-6-5-5-5-5----------------|-----------------4-4-4-4-3-3-3-3----------------|
------------------------------------------------|------------------------------------------------|-6-6-6-6-6-6-6-6--------------------------------|-6-6-6-6-6-6-6-6-6-6-6-6-5---5------------------|-4-4-4-4-4-4-4-4-6-6-6-6-5---5------------------|-----------------4-4-4-4-3---3------------------|
------------------------------------------------|------------------------------------------------|-6---------6---------6--------------------------|-6-x4-6----6-x4-6----6-x4-6----5----------------|-4----6-x4-4----6-x4-4----6-x4-5-x8-------------|------4---------4---------4----3----------------|
------------------------------------------------|------------------------------------------------|-6---------6---------6--------------------------|-6-x4-6----6-x4-6----6-x4-6----5-5--------------|-4----6-x4-4----6-x4-4----6-x4-5-5--------------|------4---------4---------4----3-3--------------|
------------------------------------------------|------------------------------------------------|------------------------------------------------|-5-5-5-6-6-4-4-----2--2--2----------------------|-5-5-5-6-6-4-4-x3--2--2--2----------------------|-3-3-3-4-4-2-2-----0--0--0----------------------|
-------------------------------------------------|-------------------------------------------------|-------------------------------------------------|-5-5-5-6-6-6-6-4-4-4-4-5-5-5-5-6-4-5-5-5-6-6-6-4-|x4-5-5-5-6-6-6-6-4-4-4-4-5-5-5-5-6-4-5-5-5-6-6-6-4-|-3-3-3-4-4-4-4-2-2-2-2-3-3-3-3-4-2-3-3-3-4-4-4-2-|
-----0-------------0-----------------------------|-----------0-------------0-----------------------|--------0-------------0--------------------------|-2~-----------2~---------------------------------|-2~-----------2~---------------------------------|-0~-----------0~---------------------------------|
Tap to rate this tab
 
# A B C D E F G H I J K L M N O P Q R S T U V W X Y Z