Cherri Bomb – Sacrificial Lamb tab

Sacrificial Lamb by Cherri Bomb

**DROP D**

|--------------------------------------||--------------------------------------||--------------------------------------| this is repeated through the|--------------------------------------| introduction and first verse|--------------------------------------| (listen to the song for pitch bends)|-0-0-15-0-0-14-0-0-15-0-0-14-3^-3^-3^-|
who who........you you...........|-------------------------------------------------||-------------------------------------------------||-14-14-14-14-16-16-16-16-17-17-17-17-13-13-13-13-||-------------------------------------------------| X3|-12-12-12-12-14-14-14-14-17-17-17-17-11-11-11-11-||-------------------------------------------------|
|-------------------------||-------------------------||-------------------------||-14-14-14-14-10-10-10-10-| X2|-12-12-12-12-8--8--8--8--||-------------------------|
chorus...
|--------------------------------------------------------||--------------------------------------------------------||-------------------------5-5----------------------------||---------------3-3-3-6-6--------------------------------||--------------------------------------------5-5-5-4-5-7-||-5-3-5-6-5-3-0----------------5-3-5-6-5-3-0-------------|
............you can make me history|-------------------||-------------------||-------------------||---7---7---7---7---||---7---7---7---7---||---7---7---7---7---|
.............
|--------------------------------------||--------------------------------------||--------------------------------------| |--------------------------------------| X4|--------------------------------------| |-0-0-15-0-0-14-0-0-15-0-0-14-3^-3^-3^-|
|-------------------------------------------||-18--17--18--17------18--17----------------||----------------12^---------14-16-17-16-14-||-------------------------------------------| X2|-------------------------------------------||-------------------------------------------|
who who........you you...........|-------------------------------------------------||-------------------------------------------------||-14-14-14-14-16-16-16-16-17-17-17-17-13-13-13-13-||-------------------------------------------------| X3|-12-12-12-12-14-14-14-14-17-17-17-17-11-11-11-11-||-------------------------------------------------|
|-------------------------||-------------------------||-------------------------||-14-14-14-14-10-10-10-10-| X2|-12-12-12-12-8--8--8--8--||-------------------------|
chorus...
|--------------------------------------------------------||--------------------------------------------------------||-------------------------5-5----------------------------||---------------3-3-3-6-6--------------------------------||--------------------------------------------5-5-5-4-5-7-||-5-3-5-6-5-3-0----------------5-3-5-6-5-3-0-------------|
............you can make me history|-------------------||-------------------||-------------------||---7---7---7---7---||---7---7---7---7---||---7---7---7---7---|
|-----------------------------||-----------------------------||-----------------------------||---------------3-3-3-2-2-2-0-||-----------------------------||-5-3-5-6-5-3-0---------------|
|------------||------------||------------||------------| X5|------------||-0-0-3-0-8^-|
...
|--------------------------------------------------------||--------------------------------------------------------||-------------------------5-5----------------------------||---------------3-3-3-6-6--------------------------------||--------------------------------------------5-5-5-4-5-7-||-5-3-5-6-5-3-0----------------5-3-5-6-5-3-0-------------|
............you can make me history|-------------------||-------------------||-------------------||---7---7---7---7---||---7---7---7---7---||---7---7---7---7---|
|-----------------------------||-----------------------------||-----------------------------||---------------3-3-3-2-2-2-0-||-----------------------------||-5-3-5-6-5-3-0---------------|
it's about right I think...there's another part over the top of the last chorus but I haven't worked that bit out yet
Please rate this tab:
x1.0