Cherry Cokes - My Story tab

Intro

||--------------------------------------14-14---------------||||-12h14h16-16-17-16-14-12-16-14-16-12--------17-17-16-16---||||----------------------------------------------------------||||----------------------------------------------------------||||----------------------------------------------------------||||----------------------------------------------------------||
||--------------------------------------14-14-----------------------||||-12h14h16-16-17-16-14-12-16-14-16-12--------17-17-16-16--b14-b12--||||------------------------------------------------------------------||||------------------------------------------------------------------||||------------------------------------------------------------------||||------------------------------------------------------------------||
Verse
||------------------------------------------||||------------------------------------------||||-5-7-9-7--------5-7-9-7-------------------||||-5-4-7-4-5-4-2--5-4-7-4-5-4-2-------------||||-3-4-7-4-5-4-2--3-4-7-4-5-4-2-------------||||---------3-2-0----------3-2-0-------------||
Rep Intro
||--------------------------------------14-14---------------||||-12h14h16-16-17-16-14-12-16-14-16-12--------17-17-16-16---||||----------------------------------------------------------||||----------------------------------------------------------||||----------------------------------------------------------||||----------------------------------------------------------||
||--------------------------------------14-14---------------||||-12h14h16-16-17-16-14-12-16-14-16-12--------17-17-16-16---||||----------------------------------------------------------||||----------------------------------------------------------||||----------------------------------------------------------||||----------------------------------------------------------||
Verse
||--------------------------||||--------------------------||||---5---5---5----15-14-12--||||-5-5-5-5-5-5-5------------||||-5-3-5-3-5-3-5--13-12-10--||||-3---3---3---3------------||
Chorus
G D A E G D||-3-3-2---3-3--------------||||-3-2-2---3-2--------------||||---3-2-1---3--12-11-9-X-9-||||-------2------x--x--x-X-X-||||-2-----2-2----10-9--7-X-7-||||-3-------3----------------||
G D A E G D||-3-3-2---3-3--------------||||-3-2-2---3-2--------------||||---3-2-1---3--9-12-9-12---||||-------2------x-x--x-X-X--||||-2-----2-2----7-10-9-10---||||-3-------3----------------||
Outro
||-----------------------------------||||-12h14h17-16-14-12-14-16-14-16-----||||-----------------------------------||||-----------------------------------||||-----------------------------------||||-----------------------------------||
||-----------------------------------||||-12h14h17-16-14-12-16-18-16-18-----||||-----------------------------------|| ||-----------------------------------||||-----------------------------------||||-----------------------------------||
||-----------------------------------||||-b7-7-5-7-2------------------------||||----7-5-7-2------------------------||||-----------------------------------||||-----------------------------------||||-----------------------------------||
http://www.thecherrycokes.com/
Tap to rate this tab
 
# A B C D E F G H I J K L M N O P Q R S T U V W X Y Z