Chevelle - Hats Off To The Bull tab version 2

Artist: Chevelle
Album: Hats Off to the Bull
Tabbed by: MetalSlayer 09


1. Face to the Floor (drop c)

the top is the guitar line and the bottom is the bass.
Intro

So I was Thinking...



|-------|----------------------------------------------------------------------||-------|----------------------------------------------------------------------||-------|----------------------------------------------------------------------||-------|----------------------------------------------------------------------||-------|-----------5-3-0------------------5-3-0-----------------5-3-0---------||-12\-0-|-0-0-5-3-0-------5--3--0--0-5-3-0-------5-3b-0--0-5-3-0---------------|
|----------------------------||----------------------------||----------------------------||----------------------------||-----------------5-3-0------||-5-3-0--0-5-3-0--------5-5b-|
verse
To pick up the tip doesn't mean a lot|-----------------------------------------------------------------------------||-----------------------------------------------------------------------------||-----------------------------------------------------------------------------||-----------------------------------------------------------------------------||-------------------------5---3---0---------------------5-3-0-----------------||-----0----0--5--3--0----------------5--3--0--0--5-3-0---------5-3------------|
|
|-----------------------------------------------------------------------------||-----------------------------------------------------------------------------||-------------------------5---3---0---------------------5-3-0-----------------||-----0----0--5--3--0----------------5--3--0--0--5-3-0---------5-3------------|
Feel it inside your drawers|-----------------------------------------------------------------------------||-----------------------------------------------------------------------------||-----------------------------------------------------------------------------||-----------------------------------------------------------------------------||----------------------5--3--0---------------------5-3-0----------------------||-----0----0--5--3--0-----------5--3-0--0--5-3-0---------5b-------------------|
|
|------------------------------------------------------------------------------||------------------------------------------------------------------------------||----------------------5--3--0---------------------5-3-0-----------------------||-----0----0--5--3--0-----------5--3-0--0--5-3-0---------5---------------------|
If we own the night then spread it out|-----------------------------------------------------------------------------||-----------------------------------------------------------------------------||-----------------------------------------------------------------------------||-----------------------------------------------------------------------------||--------------------------5--3---0----------------------5-3-0----------------||-----0----0--5--3------0--------------5--3--0--0--5-3-0---------5-3----------|
|
|-----------------------------------------------------------------------------||-----------------------------------------------------------------------------||--------------------------5--3---0----------------------5-3-0----------------||-----0----0--5--3------0--------------5--3--0--0--5-3-0---------5-3----------|
Or pack up without a clue|-----------------------------------------------------------------------------||-----------------------------------------------------------------------------||-----------------------------------------------------------------------------||-----------------------------------------------------------------------------||----------------------5--3--0---------------------5-3-0----------------------||-----0----0--5--3--0-----------5--3-0--0--5-3-0---------5b--3----------------|
|
|-----------------------------------------------------------------------------||-----------------------------------------------------------------------------||----------------------5--3--0---------------------5-3-0----------------------||-----0----0--5--3--0-----------5--3-0--0--5-3-0---------5---3----------------|
prechorus
well cause by their own/ and by default/ time to vamanos|------------------------------------------------------------------------------||------------------------------------------------------------10---------13-----||------------------------------------------------------------10---------12-----||-0---7----8--8-8-10----0---7-8--8-8-10--0--7-8--8-8-10--8-8-8----10-10-10-----||-0---7----8--8-8-10----0---7-8--8-8-10--0--7-8--8-8-10--8-8-8----10-10-10-----||-0---7----8--8-8-10----0---7-8--8-8-10--0--7-8--8-8-10--8-8-8----10-10-10-----|
|
|------------------------------------------------------------------------------||------------------------------------------------------------------------------||------------------------------------------------------------------------------||-0---7----8--8-8-10----0---7-8--8-8-10--0--7-8--8-8-10--8-8-8----10-10-10-----|
chorus
like your face getting forced to the floor|--------------------------------------------------------------------------------||--------------------------------------------------------------------------------||--------------------------------------------------------------------------------||-----------------5-3-----------------5-3-----------------5-3--------------------||-----------5-3-0-5-3-----------5-3-0-5-3-----------5-3-0-5-3-----------5-3-0----||-0-0-5-3-0-------5-3-0-0-5-3-0-------5-3-0-0-5-3-0-------5-3-0-0-5-3-0-------5b-|
|
|--------------------------------------------------------------------------------||--------------------------------------------------------------------------------||-----------5-3-0---------------5-3-0---------------5-3-0---------------5-3-0----||-0-0-5-3-0-------5-3-0-0-5-3-0-------5-3-0-0-5-3-0-------5-3-0-0-5-3-0-------5--|
verse
well I got a taste of the benefits|-----------------------------------------------------------------------------||-----------------------------------------------------------------------------||-----------------------------------------------------------------------------||-----------------------------------------------------------------------------||-------------------------5---3---0---------------------5-3-0-----------------||-----0----0--5--3--0----------------5--3--0--0--5-3-0---------5-3------------|
|
|-----------------------------------------------------------------------------||-----------------------------------------------------------------------------||-------------------------5---3---0---------------------5-3-0-----------------||-----0----0--5--3--0----------------5--3--0--0--5-3-0---------5-3------------|
five foot of change|-----------------------------------------------------------------------------||-----------------------------------------------------------------------------||-----------------------------------------------------------------------------||-----------------------------------------------------------------------------||----------------------5--3--0---------------------5-3-0----------------------||-----0----0--5--3--0-----------5--3-0--0--5-3-0---------5b-------------------|
|
|-----------------------------------------------------------------------------||-----------------------------------------------------------------------------||----------------------5--3--0---------------------5-3-0----------------------||-----0----0--5--3--0-----------5--3-0--0--5-3-0---------5--------------------|
Theres no better way to hash it out|-----------------------------------------------------------------------------||-----------------------------------------------------------------------------||-----------------------------------------------------------------------------||-----------------------------------------------------------------------------||--------------------------5--3---0----------------------5-3-0----------------||-----0----0--5--3------0--------------5--3--0--0--5-3-0---------5-3----------|
|
|-----------------------------------------------------------------------------||-----------------------------------------------------------------------------||--------------------------5--3---0----------------------5-3-0----------------||-----0----0--5--3------0--------------5--3--0--0--5-3-0---------5-3----------|
So lets set up your time to bail|-----------------------------------------------------------------------------||-----------------------------------------------------------------------------||-----------------------------------------------------------------------------||-----------------------------------------------------------------------------||----------------------5--3--0---------------------5-3-0----------------------||-----0----0--5--3--0-----------5--3-0--0--5-3-0---------5b--3----------------|
|
|-----------------------------------------------------------------------------||-----------------------------------------------------------------------------||----------------------5--3--0---------------------5-3-0----------------------||-----0----0--5--3--0-----------5--3-0--0--5-3-0---------5---3----------------|
prechorus
well cause now the cracks/ should we intervene?/ I hold this albatross|------------------------------------------------------------------------------||------------------------------------------------------------10---------13-----||------------------------------------------------------------10---------12-----||-0---7----8--8-8-10----0---7-8--8-8-10--0--7-8--8-8-10--8-8-8----10-10-10-----||-0---7----8--8-8-10----0---7-8--8-8-10--0--7-8--8-8-10--8-8-8----10-10-10-----||-0---7----8--8-8-10----0---7-8--8-8-10--0--7-8--8-8-10--8-8-8----10-10-10-----|
|
|------------------------------------------------------------------------------||------------------------------------------------------------------------------||------------------------------------------------------------------------------||-0---7----8--8-8-10----0---7-8--8-8-10--0--7-8--8-8-10--8-8-8----10-10-10-----|
chorus
like your face getting forced to the floor|--------------------------------------------------------------------------------||--------------------------------------------------------------------------------||--------------------------------------------------------------------------------||-----------------5-3-----------------5-3-----------------5-3--------------------||-----------5-3-0-5-3-----------5-3-0-5-3-----------5-3-0-5-3-----------5-3-0----||-0-0-5-3-0-------5-3-0-0-5-3-0-------5-3-0-0-5-3-0-------5-3-0-0-5-3-0-------5b-|
|
|--------------------------------------------------------------------------------||--------------------------------------------------------------------------------||-----------5-3-0---------------5-3-0---------------5-3-0---------------5-3-0----||-0-0-5-3-0-------5-3-0-0-5-3-0-------5-3-0-0-5-3-0-------5-3-0-0-5-3-0-------5--|
when either way your way to close to it all|--------------------------------------------------------------------------------||--------------------------------------------------------------------------------||--------------------------------------------------------------------------------||-----------------5-3-----------------5-3-----------------5-3--------------------||-----------5-3-0-5-3-----------5-3-0-5-3-----------5-3-0-5-3-----------5-3-0----||-0-0-5-3-0-------5-3-0-0-5-3-0-------5-3-0-0-5-3-0-------5-3-0-0-5-3-0-------5b-|
|
|--------------------------------------------------------------------------------||--------------------------------------------------------------------------------||-----------5-3-0---------------5-3-0---------------5-3-0---------------5-3-0----||-0-0-5-3-0-------5-3-0-0-5-3-0-------5-3-0-0-5-3-0-------5-3-0-0-5-3-0-------5--|
interlude
pay up never wait 'em out cover me up to you|-------------------------------------------------------------------------------------------------||-------------------------------------------------------------------------------------------------||-------------------------------------------------------------------------------------------------||-5-3-5-3-x-x-x-x-5-3-x-x-x-x-5-3-5-3------------------------------5-3-x-x-x-x-5-3-x-x-x-x-5-3----||-5-3-5-3-x-x-x-x-5-3-x-x-x-x-5-3-5-3-----------5-3-0--------------5-3-x-x-x-x-5-3-x-x-x-x-5-3----||-5-3-5-3-x-x-x-x-5-3-x-x-x-x-5-3-5-3-0-0-5-3-0-------5-3-0-3-5-3--5-3-x-x-x-x-5-3-x-x-x-x-5-3-5b-|
| . . . .|-------------------------------------------------------------------------------------------------||-------------------------------------------------------------------------------------------------||-------------------------------------------------------------------------------------------------||-5-3-5-3---------5-3----------5-3-5-3-0-0-5-3-0-------5-3-0-3-5-3--5-3--------5-3---------5-3-5--| . . . .
take it all|-------------------------------------------------------------------------------------------------||-------------------------------------------------------------------------------------------------||-------------------------------------------------------------------------------------------------||-------------------------------------------------------------------------------------------------||-3-5-3-5-3-5-3-5-3-6-3-5-3-5-3-5-3-5-3-5-3-6-3-5-3-5-3-5-3-5-3-5-3-6-3-5-3-5-3-5-3-5-3-5-3-6-3-5-||-0-0-0-0-0-0-0-0-0-0-0-0-0-0-0-0-0-0-0-0-0-0-0-0-0-0-0-0-0-0-0-0-0-0-0-0-0-0-0-0-0-0-0-0-0-0-0-0-|
|
|-------------------------------------------------------------------------------------------------||-------------------------------------------------------------------------------------------------||-3-5-3-5-3-5-3-5-3-6-3-5-3-5-3-5-3-5-3-5-3-6-3-5-3-5-3-5-3-5-3-5-3-6-3-5-3-5-3-5-3-5-3-5-3-6-3-5-||-------------------------------------------------------------------------------------------------|
your mouth blessed|-------------------------------------------------------------------------------||-------------------------------------------------------------------------------||-------------------------------------------------------------------------------||-12-10-8-7-5-7-8-7---12-10-8-7-5-7-8-7---12-10-8-7-5-7-8-7---12-10-8-7-5-7-8-7-||-12-10-8-7-5-7-8-7---12-10-8-7-5-7-8-7---12-10-8-7-5-7-8-7---12-10-8-7-5-7-8-7-||-12-10-8-7-5-7-8-7---12-10-8-7-5-7-8-7---12-10-8-7-5-7-8-7---12-10-8-7-5-7-8-7-|
|
|-------------------------------------------------------------------------------||-------------------------------------------------------------------------------||-------------------------------------------------------------------------------||-12-10-8-7-5-7-8-7---12-10-8-7-5-7-8-7---12-10-8-7-5-7-8-7---12-10-8-7-5-7-8-7-|
take it all the way right back down|-------------------------------------------------------------------------------------------------||-------------------------------------------------------------------------------------------------||-------------------------------------------------------------------------------------------------||-------------------------------------------------------------------------------------------------||-3-5-3-5-3-5-3-5-3-6-3-5-3-5-3-5-3-5-3-5-3-6-3-5-3-5-3-5-3-5-3-5-3-6-3-5-3-5-3-5-3-5-3-5-3-6-3-5-||-0-0-0-0-0-0-0-0-0-0-0-0-0-0-0-0-0-0-0-0-0-0-0-0-0-0-0-0-0-0-0-0-0-0-0-0-0-0-0-0-0-0-0-0-0-0-0-0-|
|
|-------------------------------------------------------------------------------------------------||-------------------------------------------------------------------------------------------------||-3-5-3-5-3-5-3-5-3-6-3-5-3-5-3-5-3-5-3-5-3-6-3-5-3-5-3-5-3-5-3-5-3-6-3-5-3-5-3-5-3-5-3-5-3-6-3-5-||-------------------------------------------------------------------------------------------------|
cure this mess|-------------------------------------------------------------------------------||-------------------------------------------------------------------------------||-------------------------------------------------------------------------------||-12-10-8-7-5-7-8-7---12-10-8-7-5-7-8-7---12-10-8-7-5-7-8-7---12-10-8-7-5-7-8-7-||-12-10-8-7-5-7-8-7---12-10-8-7-5-7-8-7---12-10-8-7-5-7-8-7---12-10-8-7-5-7-8-7-||-12-10-8-7-5-7-8-7---12-10-8-7-5-7-8-7---12-10-8-7-5-7-8-7---12-10-8-7-5-7-8-7-|
|
|-------------------------------------------------------------------------------||-------------------------------------------------------------------------------||-------------------------------------------------------------------------------||-12-10-8-7-5-7-8-7---12-10-8-7-5-7-8-7---12-10-8-7-5-7-8-7---12-10-8-7-5-7-8-7-|
pay up never take it all|----------------------------------||----------------------------------||----------------------------------||-5-3-x-x-x-x-5-3-x-x-x-x-5-3-5-3--||-5-3-x-x-x-x-5-3-x-x-x-x-5-3-5-3--||-5-3-x-x-x-x-5-3-x-x-x-x-5-3-5-3--|
|
|----------------------------------||----------------------------------||----------------------------------||-5-3----------5-3--------5-3-5-3--|
take it all|------------------------------------------------------------------------------||------------------------------------------------------------10---------13-----||------------------------------------------------------------10---------12-----||-0---7----8--8-8-10----0---7-8--8-8-10--0--7-8--8-8-10--8-8-8----10-10-10-----||-0---7----8--8-8-10----0---7-8--8-8-10--0--7-8--8-8-10--8-8-8----10-10-10-----||-0---7----8--8-8-10----0---7-8--8-8-10--0--7-8--8-8-10--8-8-8----10-10-10-----|
|
|------------------------------------------------------------------------------||------------------------------------------------------------------------------||------------------------------------------------------------------------------||-0---7----8--8-8-10----0---7-8--8-8-10--0--7-8--8-8-10--8-8-8----10-10-10-----|
chorus
like your face getting forced to the floor in a league of your own|--------------------------------------------------------------------------------||--------------------------------------------------------------------------------||--------------------------------------------------------------------------------||-----------------5-3-----------------5-3-----------------5-3--------------------||-----------5-3-0-5-3-----------5-3-0-5-3-----------5-3-0-5-3-----------5-3-0----||-0-0-5-3-0-------5-3-0-0-5-3-0-------5-3-0-0-5-3-0-------5-3-0-0-5-3-0-------5b-|
|
|--------------------------------------------------------------------------------||--------------------------------------------------------------------------------||-----------5-3-0---------------5-3-0---------------5-3-0---------------5-3-0----||-0-0-5-3-0-------5-3-0-0-5-3-0-------5-3-0-0-5-3-0-------5-3-0-0-5-3-0-------5--|
and either way your way to close to it all you cannot veto the world|--------------------------------------------------------------------------------||--------------------------------------------------------------------------------||--------------------------------------------------------------------------------||-----------------5-3-----------------5-3-----------------5-3--------------------||-----------5-3-0-5-3-----------5-3-0-5-3-----------5-3-0-5-3-----------5-3-0----||-0-0-5-3-0-------5-3-0-0-5-3-0-------5-3-0-0-5-3-0-------5-3-0-0-5-3-0-------5b-|
|
|--------------------------------------------------------------------------------||--------------------------------------------------------------------------------||-----------5-3-0---------------5-3-0---------------5-3-0---------------5-3-0----||-0-0-5-3-0-------5-3-0-0-5-3-0-------5-3-0-0-5-3-0-------5-3-0-0-5-3-0-------5--|
like your face getting forced to the floor in a league of your own|--------------------------------------------------------------------------------||--------------------------------------------------------------------------------||--------------------------------------------------------------------------------||-----------------5-3-----------------5-3-----------------5-3--------------------||-----------5-3-0-5-3-----------5-3-0-5-3-----------5-3-0-5-3-----------5-3-0----||-0-0-5-3-0-------5-3-0-0-5-3-0-------5-3-0-0-5-3-0-------5-3-0-0-5-3-0-------5b-|
|
|--------------------------------------------------------------------------------||--------------------------------------------------------------------------------||-----------5-3-0---------------5-3-0---------------5-3-0---------------5-3-0----||-0-0-5-3-0-------5-3-0-0-5-3-0-------5-3-0-0-5-3-0-------5-3-0-0-5-3-0-------5--|
and either way your way to close to it all to close to it all
|-------------------------------------------------------------------------------------||-------------------------------------------------------------------------------------||-------------------------------------------------------------------------------------||-----------------5-3-----------------5-3-----------------5-3---------------------3-0-||-----------5-3-0-5-3-----------5-3-0-5-3-----------5-3-0-5-3-----------5-3-0-----3-0-||-0-0-5-3-0-------5-3-0-0-5-3-0-------5-3-0-0-5-3-0-------5-3-0-0-5-3-0-------5tb-3-0-|
|
|-------------------------------------------------------------------------------------||-------------------------------------------------------------------------------------||-----------5-3-0---------------5-3-0---------------5-3-0---------------5-3-0---------||-0-0-5-3-0-------5-3-0-0-5-3-0-------5-3-0-0-5-3-0-------5-3-0-0-5-3-0-------5---3-0-|
2. Same Old Trip (drop c) intro
these aren't quite tremelo picking butits easier than writing 700 notes.-|-15t--14t-12t------------14t------------12-----------------------||-12t--12t-12t------------12t-------------------------------------||-----------------------------------------------------------------||-----------------------------------------------------------------||-----------------------------------------------------------------||-----------------------------------------------------------------|
|
|-----------------------------------------------------------------||-----------------------------------------------------------------||-----------------------------------------------------------------||----------5-5-5-5-5-5-5-5-7-7-7-7-7-7-7-7------------------------||----------3-3-3-3-3-3-3-3-5-5-5-5-5-5-5-5------------------------||-----------------------------------------------------------------|
verse
|------------------------------------------------------------------||------------------------------------------------------------------||------------------------------------------------------------------||------------------------------------------------------------------||---------3--------------1-----------------------------------------||-2-2-0-2---2-0--2-2-0-2---2-0-------------------------------------|
|-------------------------------------------------------------------------------------------||-------------------------------------------------------------------------------------------||-------------------------------------------------------------------------------------------||-------------------------------------------------------------------------------------------||-2-2---2-3-2----2-2---2-1-2----2-2---2-3-2----2-2---2-1-2----2-2---2-3-2----2-2---2-1-2----||-2-2-0-2---2-0--2-2-0-2---2-0--2-2-0-2---2-0--2-2-0-2---2-0--2-2-0-2---2-0--2-2-0-2---2-0--|
|-------------------------------------------------------------------------------------------||-------------------------------------------------------------------------------------------||-------------------------------------------------------------------------------------------||-------------------------------------------------------------------------------------------||-2-2---2-3-2----2-2---2-1-2----2-2---2-3-2----2-2---2-1-2----2-2---2-3-2----2-2---2-1-2----||-2-2-0-2---2-0--2-2-0-2---2-0--2-2-0-2---2-0--2-2-0-2---2-0--2-2-0-2---2-0--2-2-0-2---2-0--|
---------------------------------------------------------------------------|---------------------------------------------------------------------------|---------------------------------------------------------------------------|---------------------------------------------------------------------------|-2-2---2-3-2----2-2---2-1-2------------------------------------------------|-2-2-0-2---2-0--2-2-0-2---2-0----------------------------------------------|
chorus
---------------------------------------------------------------------------|---------------------------------------------------------------------------|---------------------------------------------------------------------------|-5-5-5-5-5-5-5-5-7-7-7-7-7-7-7-7-9-9-9-9-9-9-9-9-12-12-12-12-12-12-12-12---|-3-3-3-3-3-3-3-3-5-5-5-5-5-5-5-5-7-7-7-7-7-7-7-7-10-10-10-10-10-10-10-10---|---------------------------------------------------------------------------|
---------------------------------------------------------------------------|---------------------------------------------------------------------------|---------------------------------------------------------------------------|-5-5-5-5-5-5-5-5-7-7-7-7-7-7-7-7-------------------------------------------|-3-3-3-3-3-3-3-3-5-5-5-5-5-5-5-5-------------------------------------------|---------------------------------------------------------------------------|
pre verse
|-12-------------------------------10--------------------------------||--------------------------------------------------------------------||--------------------------------------------------------------------||--------------------------------------------------------------------||--------------------------------------------------------------------||--------------------------------------------------------------------|
|
|--------------------------------------------------------------------||--------------------------------------------------------------------||--------------------------------------------------------------------||--------------------------------------------------------------------||----------3--------------1---------------3--------------1-----------||--2-2-0-2---2-0--2-2-0-2---2-0---2-2-0-2---2-0--2-2-0-2---2-0-------|
vere 2 (now here it sounds more like two guitars playing this than one playing an octave) (but it works either way so you make the choice)
|-12t--------b---------------------12t-----------b-----------------||------------------------------------------------------------------||-9t---------b---------------------9t------------b-----------------||------------------------------------------------------------------||------------------------------------------------------------------||------------------------------------------------------------------|
|
|------------------------------------------------------------------||------------------------------------------------------------------||------------------------------------------------------------------||------------------------------------------------------------------||-2-2-0-2--------------------------2-2-0-2-------------------3-----||-2-2-0-2--------------------------2-2-0-2---------------0-2-------|
|-12t---------b--------------------12t----------b------------------||------------------------------------------------------------------||--9t---------b--------------------9t-----------b------------------||------------------------------------------------------------------||------------------------------------------------------------------||------------------------------------------------------------------|
|
|------------------------------------------------------------------||------------------------------------------------------------------||------------------------------------------------------------------||------------------------------------------------------------------||-2-2-0-2---------------------3----2-2-0-2-------------------3-----||-2-2-0-2-----------------0-2------2-2-0-2---------------0-2-------|
pre chorus (the 12 is very quiet into the left speaker here)
|-12t--------------------------------------------------------------------------||------------------------------------------------------------------------------||------------------------------------------------------------------------------||------------------------------------------------------------------------------||------------------------------------------------------------------------------||------------------------------------------------------------------------------|
|
|------------------------------------------------------------------------------||------------------------------------------------------------------------------||------------------------------------------------------------------------------||-------------------------------------------------------------x-x-x-x-x-x-x-x--||-2-2-0-2-3-2-0-2-2-0-2-----------------2-2-0-2-3-2-0-2-2-0-2-x-x-x-x-x-x-x-x--||-2-2-0-2---2-0-2-2-0-2-----------------2-2-0-2---2-0-2-2-0-2-x-x-x-x-x-x-x-x--|
| chorus
-------------------------------------------------------------------------|-------------------------------------------------------------------------|-------------------------------------------------------------------------|-5-5-5-5-5-5-5-5-7-7-7-7-7-7-7-7-9-9-9-9-9-9-9-9-12-12-12-12-12-12-12-12-|-3-3-3-3-3-3-3-3-5-5-5-5-5-5-5-5-7-7-7-7-7-7-7-7-10-10-10-10-10-10-10-10-|-------------------------------------------------------------------------|
-------------------------------------------------------------------------|-------------------------------------------------------------------------|-------------------------------------------------------------------------|-5-5-5-5-5-5-5-5-7-7-7-7-7-7-7-7-9-9-9-9-9-9-9-9-12-12-12-12-12-12-12-12-|-3-3-3-3-3-3-3-3-5-5-5-5-5-5-5-5-7-7-7-7-7-7-7-7-10-10-10-10-10-10-10-10-|-------------------------------------------------------------------------|
-------------------------------------------------------------------------|-------------------------------------------------------------------------|-------------------------------------------------------------------------|-5-5-5-5-5-5-5-5-7-7-7-7-7-7-7-7-----------------------------------------|-3-3-3-3-3-3-3-3-5-5-5-5-5-5-5-5-----------------------------------------|-------------------------------------------------------------------------|
interlude (again guitar 1 on here is actually 2 guitars)
|-12t-------------b---------------------------------------------------------------------------||------------------------------12t----------------------13t-12t-------------------------------||---------------------------------------------------------------------------------------------||-14t-------------b---------------------------------------------------------------------------||------------------------------14t----------------------15t-14t-------------------------------||---------------------------------------------------------------------------------------------|
|
|---------------------------------------------------------------------------------------------||------------------------------------------------------------0--------------------------------||--------------------0-------0----------------------0-----------------------------------------||-----------------4-------4-----------------------4--------4----------------------------------||-2-2-0-2-0-2-0-2------2-------2-2-0-2-0-2-0---2-------2--------------------------------------||-2-2-0-2-0-2-0----------------2-2-0-2-0-2-0--------------------------------------------------|
|-15t-------------------------14t-----------------------------12-----------------------------||--------------------------------------------------------------------------------------------||--------------------------------------------------------------------------------------------||-17t-------------------------16t-----------------------------14-----------------------------||--------------------------------------------------------------------------------------------||--------------------------------------------------------------------------------------------|
|
|--------------------------------------------------------------------------------------------||------------------------------------------------------------0-------------------------------||--------------------0-------0----------------------0----------------------------------------||-----------------4-------4-----------------------4--------4---------------------------------||-2-2-0-2-0-2-0-2------2-------2-2-0-2-0-2-0---2-------2-------------------------------------||-2-2-0-2-0-2-0----------------2-2-0-2-0-2-0-------------------------------------------------|
prechorus 2
|-12----------bt---------12-------bt--------------12t---------b--------12t-----b-------------||--------------------------------------------------------------------------------------------||--------------------------------------------------------------------------------------------||-14----------bt---------14-------bt--------------14t---------b--------14t-----b-------------||--------------------------------------------------------------------------------------------||--------------------------------------------------------------------------------------------|
|
|--------------------------------------------------------------------------------------------||--------------------------------------------------------------------------------------------||--------------------------------------------------------------------------------------------||--------------------------------------------------------------------------------------------||-2-2-0-2-3-2-0-2-2-0-2--2-2-0-2-3-2-0-2-2-0-2--2-2-0-2-3-2-0-2-2-0-2--2-2-0-2-3-2-0-2-2-0-2-||-2-2-0-2---2-0-2-2-0-2--2-2-0-2---2-0-2-2-0-2--2-2-0-2---2-0-2-2-0-2--2-2-0-2---2-0-2-2-0-2-|
chorus (the top guitar is really hard to hear but once) (ya hear it it annoys the hell outta ya.)
|-------------------------------------------------15-15-15-15-15-15-15-15-||-12(x24)-----------------------------------------12-12-12-12-12-12-12-12-||-------------------------------------------------------------------------||-------------------------------------------------------------------------||-------------------------------------------------------------------------||-------------------------------------------------------------------------|
|
|-------------------------------------------------------------------------||-------------------------------------------------------------------------||-------------------------------------------------------------------------||-5-5-5-5-5-5-5-5-7-7-7-7-7-7-7-7-9-9-9-9-9-9-9-9-12-12-12-12-12-12-12-12-||-3-3-3-3-3-3-3-3-5-5-5-5-5-5-5-5-7-7-7-7-7-7-7-7-10-10-10-10-10-10-10-10-||-------------------------------------------------------------------------|
|-------------------------------------------------15-15-15-15-15-15-15-15-||-12(x24)-----------------------------------------12-12-12-12-12-12-12-12-||-------------------------------------------------------------------------||-------------------------------------------------------------------------||-------------------------------------------------------------------------||-------------------------------------------------------------------------|
|
|-------------------------------------------------------------------------||-------------------------------------------------------------------------||-------------------------------------------------------------------------||-5-5-5-5-5-5-5-5-7-7-7-7-7-7-7-7-9-9-9-9-9-9-9-9-12-12-12-12-12-12-12-12-||-3-3-3-3-3-3-3-3-5-5-5-5-5-5-5-5-7-7-7-7-7-7-7-7-10-10-10-10-10-10-10-10-||-------------------------------------------------------------------------|
|-------------------------------------------------15-15-15-15-15-15-15-15-||-12(x24)-----------------------------------------12-12-12-12-12-12-12-12-||-------------------------------------------------------------------------||-------------------------------------------------------------------------||-------------------------------------------------------------------------||-------------------------------------------------------------------------|
|
|-------------------------------------------------------------------------||-------------------------------------------------------------------------||-------------------------------------------------------------------------||-5-5-5-5-5-5-5-5-7-7-7-7-7-7-7-7-9-9-9-9-9-9-9-9-12-12-12-12-12-12-12-12-||-3-3-3-3-3-3-3-3-5-5-5-5-5-5-5-5-7-7-7-7-7-7-7-7-10-10-10-10-10-10-10-10-||-------------------------------------------------------------------------|
|-------------------------------------------------------------------||-12(x24)-----------------------------------------------------------||-------------------------------------------------------------------||-------------------------------------------------------------------||-------------------------------------------------------------------||-------------------------------------------------------------------|
|
|-------------------------------------------------------------------||-------------------------------------------------------------------||-------------------------------------------------------------------||-5-5-5-5-5-5-5-5-7-7-7-7-7-7-7-7-----------------------------------||-3-3-3-3-3-3-3-3-5-5-5-5-5-5-5-5-----------------------------------||-------------------------------------------------------------------|
outro
|----------||----------||-9t-------||-----2----||-7t--2----||-----2----|
also before someone starts a flame war in the comments the chorus can also be played with the following
|----------------||----------------||----------------||-10-12-14-17----||-10-12-14-17----||-10-12-14-17----|
3. Ruse (drop c) intro
|-------------------------------------------------------------------------------------||-------------------------------------------------------------------------------------||-------------------------------------------------------------------------------------||-7h8p7--------7h8p7------7h8p8-------------7h8p7--------7h8p7------7h8p8-------------||--------5--5---------5-5-------5-5-5-5-5---------5--5---------5-5-------5-5-5-5-5\---||-------------------------------------------------------------------------------------|
|------------------------------------------------------------------------------------------||---5---5p3---5---5p1---5---5p2---5------------5---5p3---5---5p1---5---5p2---5-------------||---2---2-----2---2-----2---2-----2------------2---2-----2---2-----2---2-----2-------------||-0-0-0-0---0-0-0-0---0-0-0-0---0-0-0-10-8-7-0-0-0-0---0-0-0-0---0-0-0-0---0-0-0-7-8-10----||-0-0-0-0---0-0-0-0---0-0-0-0---0-0-0-10-8-7-0-0-0-0---0-0-0-0---0-0-0-0---0-0-0-7-8-10----||-0-0-0-0---0-0-0-0---0-0-0-0---0-0-0-10-8-7-0-0-0-0---0-0-0-0---0-0-0-0---0-0-0-7-8-10----|
verse
|-1--1--1--1----------------------------------------------------||-3--3--3--3----------------------------------------------------||-2--2--2--2----------------------------------------------------||-0--0--0--0----------------------------------------------------||-0--0--0--0----------------------------------------------------||-0-------------------------------------------------------------|
|-------------------------------------------------------------------------------------||-------------------------------------------------------------------------------------||-------------------------------------------------------------------------------------||-7h8p7--------7h8p7------7h8p8-------------7h8p7--------7h8p7------7h8p8-------------||--------5--5---------5-5-------5-5-5-5-5---------5--5---------5-5-------5-5-5-5-5\---||-------------------------------------------------------------------------------------|
|-1--1--1--1--------------------------------------------------------||-3--3--3--3--------------------------------------------------------||-2--2--2--2---xxxx-------------------------------------------------||-0--0--0--0---xxxx-------------------------------------------------||-0--0--0--0---xxxx-------------------------------------------------||-0------------xxxx-------------------------------------------------|
chorus
|-------------------------------------------------------------------------||-----3-3-----------------------------------------------------------------||-----2-2-------5-5---------12-12--------10-10----------------------------||-0-0-0-0-0-3-3-3-3-3-10-10-10-10-10-8-8-8--8--8--------------------------||-0-0-0-0-0-3-3-3-3-3-10-10-10-10-10-8-8-8--8--8--------------------------||-0-------0-3-----3-3-10-------10-10-8------8--8--------------------------|
|----------------------------------------------------------------------------||----------------------------------------------------------------------------||-/14-14-14-14-14-14-14-14-14-14-14-14-/17-17-17-17-17-17-17-17-17-17-17-17--||----------------------------------------------------------------------------||-/12-12-12-12-12-12-12-12-12-12-12-12-/15-15-15-15-15-15-15-15-15-15-15-15--||----------------------------------------------------------------------------|
|-----------------------------------------------------------------------||-----------------------------------------------------------------------||-12-12-12-12-12-12-12-12-12-12-12-12-10-10-10-10-10-10-10-10-10-10-9-9-||-----------------------------------------------------------------------||-10-10-10-10-10-10-10-10-10-10-10-10-8--8--8--8--8--8--8--8--8--8--7-7-||-----------------------------------------------------------------------|
preverse
|------------------------------------------------------------------------------------------||---5---5p3---5---5p1---5---5p2---5------------5---5p3---5---5p1---5---5p2---5-------------||---2---2-----2---2-----2---2-----2------------2---2-----2---2-----2---2-----2-------------||-0-0-0-0---0-0-0-0---0-0-0-0---0-0-0-10-8-7-0-0-0-0---0-0-0-0---0-0-0-0---0-0-0-7-8-10----||-0-0-0-0---0-0-0-0---0-0-0-0---0-0-0-10-8-7-0-0-0-0---0-0-0-0---0-0-0-0---0-0-0-7-8-10----||-0-0-0-0---0-0-0-0---0-0-0-0---0-0-0-10-8-7-0-0-0-0---0-0-0-0---0-0-0-0---0-0-0-7-8-10----|
|-----------------------------------------------||-----------------------------------------------||-----------------------------------------------||---7h8p7----------7h8p7------7h8p7-------------||-----------5--5---------5-5-------5-5-5-5-5\---||-----------------------------------------------|
verse
|-1--1--1--1-------------------------------------1--1--1--1--------------------------------------||-3--3--3--3-------------------------------------3--3--3--3--------------------------------------||-2--2--2--2-------------------------------------2--2--2--2--------------------------------------||-0--0--0--0--10--10-10-10-10-10-8-7-5-5-5-5-5-5-0--0--0--0--------------------------------------||-0--0--0--0--10--10-10-10-10-10-8-7-5-5-5-5-5-5-0--0--0--0--------------------------------------||-0-----------10--10-10-10-10-10-8-7-5-5-5-5-5-5-0--0--0--0-10--10-10-10-10-10-8-7-5-5-5-5-5-5-0-|
|----------------------------------||----------------------------------||----------------------------xxxx--||----------------------------xxxx--||----------------------------xxxx--||-10--10-10-10-10-10-8-7-5---xxxx--|
chorus
|-------------------------------------------------------------------------||-----3-3-----------------------------------------------------------------||-----2-2-------5-5---------12-12--------10-10----------------------------||-0-0-0-0-0-3-3-3-3-3-10-10-10-10-10-8-8-8--8--8--------------------------||-0-0-0-0-0-3-3-3-3-3-10-10-10-10-10-8-8-8--8--8--------------------------||-0-------0-3-----3-3-10-------10-10-8------8--8--------------------------|
|----------------------------------------------------------------------------||----------------------------------------------------------------------------||-/14-14-14-14-14-14-14-14-14-14-14-14-/17-17-17-17-17-17-17-17-17-17-17-17--||----------------------------------------------------------------------------||-/12-12-12-12-12-12-12-12-12-12-12-12-/15-15-15-15-15-15-15-15-15-15-15-15--||----------------------------------------------------------------------------|
|-----------------------------------------------------------------------||-----------------------------------------------------------------------||-12-12-12-12-12-12-12-12-12-12-12-12-10-10-10-10-10-10-10-10-10-10-9-9-||-----------------------------------------------------------------------||-10-10-10-10-10-10-10-10-10-10-10-10-8--8--8--8--8--8--8--8--8--8--7-7-||-----------------------------------------------------------------------|
|-------------------------------------------------------------------------||-------------------------------------------------------------------------||-12-12-12-12-12-12-12-12-12-12-12-12-14-14-14-14-14-14-14-14-14-14-14-14-||-12-12-12-12-12-12-12-12-12-12-12-12-14-14-14-14-14-14-14-14-14-14-14-14-||-10-10-10-10-10-10-10-10-10-10-10-10-12-12-12-12-12-12-12-12-12-12-12-12-||-------------------------------------------------------------------------|
|-------------------------------------------------------------------------||-----3-3-----------------------------------------------------------------||-----2-2-------5-5---------12-12--------10-10----------------------------||-0-0-0-0-0-3-3-3-3-3-10-10-10-10-10-8-8-8--8--8--------------------------||-0-0-0-0-0-3-3-3-3-3-10-10-10-10-10-8-8-8--8--8--------------------------||-0-------0-3-----3-3-10-------10-10-8------8--8--------------------------|
|----------------------------------------------------------------------------||----------------------------------------------------------------------------||-/14-14-14-14-14-14-14-14-14-14-14-14-/17-17-17-17-17-17-17-17-17-17-17-17--||----------------------------------------------------------------------------||-/12-12-12-12-12-12-12-12-12-12-12-12-/15-15-15-15-15-15-15-15-15-15-15-15--||----------------------------------------------------------------------------|
|-----------------------------------------------------------------------||-----------------------------------------------------------------------||-12-12-12-12-12-12-12-12-12-12-12-12-10-10-10-10-10-10-10-10-10-10-9-9-||-----------------------------------------------------------------------||-10-10-10-10-10-10-10-10-10-10-10-10-8--8--8--8--8--8--8--8--8--8--7-7-||-----------------------------------------------------------------------|
pre-solo
|-------------------------------------------------------------------------||-------------------------------------------------------------------------||-10-10-10-10-9-9-9-9-9-9-9-9-9-9-9-9-10-10-10-10-10-10-10-10-10-10-10-10-||-8--8--8--8--9-9-9-9-9-9-9-9-9-9-9-9-10-10-10-10-10-10-10-10-10-10-10-10-||-8--8--8--8--7-7-7-7-7-7-7-7-7-7-7-7-8--8--8--8--8--8--8--8--8--8--8--8--||-------------------------------------------------------------------------|
|-------------------------------------------------------------------------||-------------------------------------------------------------------------||-12-12-12-12-12-12-12-12-12-12-12-12-14-14-14-14-14-14-14-14-14-14-14-14-||-12-12-12-12-12-12-12-12-12-12-12-12-14-14-14-14-14-14-14-14-14-14-14-14-||-10-10-10-10-10-10-10-10-10-10-10-10-12-12-12-12-12-12-12-12-12-12-12-12-||-------------------------------------------------------------------------|
|--------------------------------------------------------||--------------------------------------------------------||-10-10-10-10-9-9-9-9-9-9-9-9-9-9-9-9--------------------||-8--8--8--8--9-9-9-9-9-9-9-9-9-9-9-9-15-14-12-15-14-12--||-8--8--8--8--7-7-7-7-7-7-7-7-7-7-7-7-0--0--0--0--0--0---||-------------------------------------0--0--0--0--0--0---|
"solo"|--------------------------------------------------------------||--------------------------------------------------------18----||--17----17----17----17-----17\19-19-19---------17----17----17-||-----17----17----17----17--17\19-19-19-17b-12-----17----------||--------------------------------------------------------------||--------------------------------------------------------------|
|--------------------||--------------------||-17\19-19-19----19t-||-------------19-19t-||--------------------||--------------------|
chorus
|-------------------------------------------------------------------------||-----3-3-----------------------------------------------------------------||-----2-2-------5-5---------12-12--------10-10----------------------------||-0-0-0-0-0-3-3-3-3-3-10-10-10-10-10-8-8-8--8--8--------------------------||-0-0-0-0-0-3-3-3-3-3-10-10-10-10-10-8-8-8--8--8--------------------------||-0-------0-3-----3-3-10-------10-10-8------8--8--------------------------|
|---------------------------------------------------------------------------||---------------------------------------------------------------------------||-/14-14-14-14-14-14-14-14-14-14-14-14-/17-17-17-17-17-17-17-17-17-17-17-17-||---------------------------------------------------------------------------||-/12-12-12-12-12-12-12-12-12-12-12-12-/15-15-15-15-15-15-15-15-15-15-15-15-||---------------------------------------------------------------------------|
|-----------------------------------------------------------------------||-----------------------------------------------------------------------||-12-12-12-12-12-12-12-12-12-12-12-12-10-10-10-10-10-10-10-10-10-10-9-9-||-----------------------------------------------------------------------||-10-10-10-10-10-10-10-10-10-10-10-10-8--8--8--8--8--8--8--8--8--8--7-7-||-----------------------------------------------------------------------|
|-------------------------------------------------------------------------||-----3-3-----------------------------------------------------------------||-----2-2-------5-5---------12-12--------10-10----------------------------||-0-0-0-0-0-3-3-3-3-3-10-10-10-10-10-8-8-8--8--8--------------------------||-0-0-0-0-0-3-3-3-3-3-10-10-10-10-10-8-8-8--8--8--------------------------||-0-------0-3-----3-3-10-------10-10-8------8--8--------------------------|
|---------------------------------------------------------------------------||---------------------------------------------------------------------------||-/14-14-14-14-14-14-14-14-14-14-14-14-/17-17-17-17-17-17-17-17-17-17-17-17-||---------------------------------------------------------------------------||-/12-12-12-12-12-12-12-12-12-12-12-12-/15-15-15-15-15-15-15-15-15-15-15-15-||---------------------------------------------------------------------------|
|-----------------------------------------------------------------------||-----------------------------------------------------------------------||-12-12-12-12-12-12-12-12-12-12-12-12-10-10-10-10-10-10-10-10-10-10-9-9-||-----------------------------------------------------------------------||-10-10-10-10-10-10-10-10-10-10-10-10-8--8--8--8--8--8--8--8--8--8--7-7-||-----------------------------------------------------------------------|
outro
|-------------------------------------------------------------------------------------------||---5---5p3---5---5p1---5---5p2---5-------------5---5p3---5---5p1---5---5p2---5-------------||---2---2-----2---2-----2---2-----2-------------2---2-----2---2-----2---2-----2-------------||-0-0-0-0---0-0-0-0---0-0-0-0---0-0-0-10-8-10-0-0-0-0---0-0-0-0---0-0-0-0---0-0-0-8-5-7-3-0-||-0-0-0-0---0-0-0-0---0-0-0-0---0-0-0-10-8-10-0-0-0-0---0-0-0-0---0-0-0-0---0-0-0-8-5-7-3-0-||-0-0-0-0---0-0-0-0---0-0-0-0---0-0-0-10-8-10-0-0-0-0---0-0-0-0---0-0-0-0---0-0-0-8-5-7-3-0-|
then a crapload of random feedback 4. The Meddler (drop b) verse
|--------||-10--8--||-9---9--||-7---7--||--------||--------|
chorus 1
|----------------------------------------------------------||----------------------------------------------------------||----------------------------------------------------------||-7--7-7--7-7-7--7--7-7--7-7-7-10--10-10--10-10-10---------||-7--7-7--7-7-7--7--7-7--7-7-7-10--10-10--10-10-10---------||-7--7-7--7-7-7--7--7-7--7-7-7-10--10-10--10-10-10---------|
|----------------------------------------------------------||----------------------------------------------------------||----------------------------------------------------------||-12--12-12--12-12-12--------------------------------------||-12--12-12--12-12-12--------------------------------------||-12--12-12--12-12-12--------------------------------------|
preverse
|----------------------------------------------------------||----------------------------------------------------------||-14-9-----------14-9--------------------------------------||------13t-12-10------13t-12-10-7--------------------------||----------------------------------------------------------||----------------------------------------------------------|
chorus 2
|----------------------------------------------------------------||----------------------------------------------------------------||------------------------------16-16-16-16-14-12-12-9-9-9--7-7-7-||----------------------------------------------------------------||------------------------------14-14-14-14-12-10-10-7-7-7--5-5-5-||----------------------------------------------------------------|
|
|----------------------------------------------------------------||----------------------------------------------------------------||----------------------------------------------------------------||-7--7-7--7-7-7--7--7-7--7-7-7-10--10-10--10-10-10-5--5-5--5-5-5-||-7--7-7--7-7-7--7--7-7--7-7-7-10--10-10--10-10-10-5--5-5--5-5-5-||-7--7-7--7-7-7--7--7-7--7-7-7-10--10-10--10-10-10-5--5-5--5-5-5-|
|----------------------------------------------------------------||----------------------------------------------------------------||------------------------------16-16-16-16-14-12-12-9-9-9--7-7-7-||----------------------------------------------------------------||------------------------------14-14-14-14-12-10-10-7-7-7--5-5-5-||----------------------------------------------------------------|
|
|----------------------------------------------------------------||----------------------------------------------------------------||----------------------------------------------------------------||-7--7-7--7-7-7--7--7-7--7-7-7-10--10-10--10-10-10-5--5-5--5-5-5-||-7--7-7--7-7-7--7--7-7--7-7-7-10--10-10--10-10-10-5--5-5--5-5-5-||-7--7-7--7-7-7--7--7-7--7-7-7-10--10-10--10-10-10-5--5-5--5-5-5-|
interlude
|---------------------------------------------------------||---------------------------------------------------------||---------------------------------------------------------||-2-2-4-5--4-5--4-5---4-5-5-5-4-5-5-5-4-5-5-5-4-5-5-5-4-5-||-2-2---------------------5-5-----5-5-----5-5-----5-5-----||-2-2---------------------5-5-----5-5-----5-5-----5-5-----|
|---------------------------------------------------------------------||---------------------------------------------------------------------||---------------------------------------------------------------------||-7-7-9-10-7-7-9-10-7-7-9-10-7-7-9-10-5-5-7-9-5-5-7-9-5-5-7-9-5-5-/\--||-7-7------7-7------7-7------7-7------5-5-----5-5-----5-5-----5-5-/\--||-7-7------7-7------7-7------7-7------5-5-----5-5-----5-5-----5-5-/\--|
|-----------------------------------------------------------------||-----------------------------------------------------------------||-----------------------------------------------------------------||-2-2-4-5-2-2-4-5-2-2-4-5-2-2-4-5-5-5-4-5-5-5-4-5-5-5-4-5-5-5-4-5-||-2-2-----2-2-----2-2-----2-2-----5-5-----5-5-----5-5-----5-5-----||-2-2-----2-2-----2-2-----2-2-----5-5-----5-5-----5-5-----5-5-----|
|----------------------------------------------------------------------||----------------------------------------------------------------19-15-||----------------------------------------------------------------------||----------------------------------------------------------------------||----------------------------------------------------------------------||----------------------------------------------------------------------|
|
|----------------------------------------------------------------------||----------------------------------------------------------------------||----------------------------------------------------------------------||-7-7-9-10-7-7-9-10-7-7-9-10-7-7-9-10-5-5-7-9-5-5-7-9-5-5-7-9-5-5-10-5-||-7-7------7-7------7-7------7-7------5-5-----5-5-----5-5-----5-5-10-5-||-7-7------7-7------7-7------7-7------5-5-----5-5-----5-5-----5-5-10-5-|
chorus (right notes probably wrong amount of times on the top guitar)
|-----------------------------------------------------------------||-----------------------------------------------------------------||-16-16-16-16-16-16-16-17-17-16-16-16-16-16-14-12-12-9-9-9--7-7-7-||-----------------------------------------------------------------||-14-14-14-14-14-14-14-15-15-14-14-14-14-14-12-10-10-7-7-7--5-5-5-||-----------------------------------------------------------------|
|
|----------------------------------------------------------------||----------------------------------------------------------------||----------------------------------------------------------------||-7--7-7--7-7-7--7--7-7--7-7-7-10--10-10--10-10-10-5--5-5--5-5-5-||-7--7-7--7-7-7--7--7-7--7-7-7-10--10-10--10-10-10-5--5-5--5-5-5-||-7--7-7--7-7-7--7--7-7--7-7-7-10--10-10--10-10-10-5--5-5--5-5-5-|
|-----------------------------------------------------------------||-----------------------------------------------------------------||-16-16-16-16-16-16-16-17-17-16-16-16-16-16-14-12-12-9-9-9--7-7-7-||-----------------------------------------------------------------||-14-14-14-14-14-14-14-15-15-14-14-14-14-14-12-10-10-7-7-7--5-5-5-||-----------------------------------------------------------------|
|
|----------------------------------------------------------------||----------------------------------------------------------------||----------------------------------------------------------------||-7--7-7--7-7-7--7--7-7--7-7-7-10--10-10--10-10-10-5--5-5--5-5-5-||-7--7-7--7-7-7--7--7-7--7-7-7-10--10-10--10-10-10-5--5-5--5-5-5-||-7--7-7--7-7-7--7--7-7--7-7-7-10--10-10--10-10-10-5--5-5--5-5-5-|
|-----------------------------------------------------------------||-----------------------------------------------------------------||-16-16-16-16-16--16--16--17--17--16--16--16--16--16--14--12--12--||-----------------------------------------------------------------||-14-14-14-14-14--14--14--15--15--14--14--14--14--14--12--10--10--||-----------------------------------------------------------------|
|
|------------------------------------------------------------------||------------------------------------------------------------------||------------------------------------------------------------------||-7-7-7-7-7-7-7-7-7-7-7-7-7-7-3-3-10-10-10-10-10-10-10-10-10-10-10-||-7-7-7-7-7-7-7-7-7-7-7-7-7-7-3-3-10-10-10-10-10-10-10-10-10-10-10-||-7-7-7-7-7-7-7-7-7-7-7-7-7-7-3-3-10-10-10-10-10-10-10-10-10-10-10-|
|--------------------------------||--------------------------------||-9--9---9---7---7----7----------||--------------------------------||-7---7--7---5---5----5----------||--------------------------------|
|
|--------------------------------||--------------------------------||--------------------------------||-5-5-5-5-5-5-5-5-5-5-5-5-10-9---||-5-5-5-5-5-5-5-5-5-5-5-5-10-9---||-5-5-5-5-5-5-5-5-5-5-5-5-10-9---|
|-----------------------------------------------------------------||-----------------------------------------------------------------||-16-16-16-16-16--16--16--17--17--16--16--16--16--16--14--12--12--||-----------------------------------------------------------------||-14-14-14-14-14--14--14--15--15--14--14--14--14--14--12--10--10--||-----------------------------------------------------------------|
|
|------------------------------------------------------------------||------------------------------------------------------------------||------------------------------------------------------------------||-7-7-7-7-7-7-7-7-7-7-7-7-7-7-3-3-10-10-10-10-10-10-10-10-10-10-10-||-7-7-7-7-7-7-7-7-7-7-7-7-7-7-3-3-10-10-10-10-10-10-10-10-10-10-10-||-7-7-7-7-7-7-7-7-7-7-7-7-7-7-3-3-10-10-10-10-10-10-10-10-10-10-10-|
|--------------------------------||--------------------------------||-9--9---9---7---7----7----------||--------------------------------||-7---7--7---5---5----5----------||--------------------------------|
|
|--------------------------------||--------------------------------||--------------------------------||-5-5-5-5-5-5-5-5-5-5-5-5-10-9---||-5-5-5-5-5-5-5-5-5-5-5-5-10-9---||-5-5-5-5-5-5-5-5-5-5-5-5-10-9---|
|-----------------------------------------------------------------||-----------------------------------------------------------------||-14-9-12-------14-9-12-------14-9-12-------14-9-12---------------||---------12-14---------12-14---------12-14---------12-14----5-7--||---------------------------------------------------------------0-||-----------------------------------------------------------------|
|
|-------------------------------------------------------------||-------------------------------------------------------------||-------------------------------------------------------------||-7--7-7--7-7-7--7--7-7--7-7-7--7--7-7--7-7-7---7--7-7--7-7-7-||-7--7-7--7-7-7--7--7-7--7-7-7--7--7-7--7-7-7---7--7-7--7-7-7-||-7--7-7--7-7-7--7--7-7--7-7-7--7--7-7--7-7-7---7--7-7--7-7-7-|
5.Pinata (drop c) intro
|--------------------------------------------------------------|--------------------------------------------------------------|--------------------------------------------------------------|-3p0-0-0-2p0--0-1p0-0-0-0-0-0-0-1p0-0-0-2p0-0-3p0-0-0-0-0-0-0-|--------------------------------------------------------------|--------------------------------------------------------------
|-------------------------------------------------------------------|-------------------------------------------------------------------|-------------------------------------------------------------------|-15-0-0-0-14-0-0-13-0-0-0-0-0-0-0-13-0-0-0-14-0-0-15-0-0-0-0-0-0-0-|-15-0-0-0-14-0-0-13-0-0-0-0-0-0-0-13-0-0-0-14-0-0-15-0-0-0-0-0-0-0-|-15-0-0-0-14-0-0-13-0-0-0-0-0-0-0-13-0-0-0-14-0-0-15-0-0-0-0-0-0-0-
play this over top of the previous piece
|--------------------------------------------------------|--------------------------------------------------------|-10t----------------------------------------------------|--------------------------------------------------------|--------------------------------------------------------|--------------------------------------------------------
verse
|-------------------------------------------------------------------------|-------------------------------------------------------------------------|-14-14-14-14-14-14-14-14-14-14-14-14-14-14-14-14-19-19-19-19-19-19-19-19-|-------------------------------------------------------------------------|-12-12-12-12-12-12-12-12-12-12-12-1
Tap to rate this tab
 
# A B C D E F G H I J K L M N O P Q R S T U V W X Y Z