Chevelle – To Return tab

Chevelle - To Return
This Type of Thinking (Could Do Us In)

Tuning:
A# F A# D# G C

***I copied this tab from the power tab version that is on this website. I thought there
be anyone out there like me that prefer this to power tab.****


Intro:

|------------------------------------------------||------------------------------------------------||-6-6-6-6---6-6/9-9-9-9/11-11-11-11-11-11-11\9-9-||-4-4-4-4---4-x-x-x-x-x-x--x--x--x--x--x--x--x-x-||-4-4-4-4---4-4/7-7-7-7/9--9--9--9--9--9--9-\7-7-||-4-4-4-4---4-0-0-0-0-0-0--0--0--0--0--0--0--0-0-|
|-----------------------------------------------------||-----------------------------------------------------||-6-6-6-6---6-6/9-9-9-9/11-11-11-11-14-14-14-13-14-13-||-4-4-4-4---4-x-x-x-x-x-x--x--x--x--x--x--x--x--x--x--||-4-4-4-4---4-4/7-7-7-7/9--9--9--9--12-12-12-11-12-11-||-4-4-4-4---4-0-0-0-0-0-0--0--0--0--0--0--0--0--0--0--|
Verse:
|--------------------------------------------------------------------||--------------------------------------------------------------------||--------------------------------------------------------------------||-11----11----11----11---------9-----------------------------12-11---||--9-----9-----9-----9-----9-9-9-0-9-----9-----9-----9-----9---------||--9-9-9-9-9-9-9-9-9-9-9-9-9-9-9-0-0-0-0-0-0-0-0-0-0-0-0-0---------0-|
Soft Chorus:
|----------------------------------------------------------||----------------------------------------------------------||-6-6---6-----6-----6---6/9-9/11--11----11----11----11\9-9-||-4-4---4-----4-----4---x-x-x-x---x-----x-----x-----x--x-x-||-4-4-4-4-4-4-4-4-4-4-4-4/7-7/9---9-----9-----9-----9-\7-7-||-4-4-4-4-4-4-4-4-4-4-4-0-0-0-0-0-0-0-0-0-0-0-0-0-0-0--0-0-|
|---------------------------------------------0----||--------------------------------------------------||-6-6---6-----6-----6---6/9-9/11--11----11/14------||-4-4---4-----4-----4---x-x-x-x---x-----x----------||-4-4-4-4-4-4-4-4-4-4-4-4/7-7/9---9-----9-/12------||-4-4-4-4-4-4-4-4-4-4-4-0-0-0-0-0-0-0-0-0--0-------|
Chorus:
|------------------------------------------------||------------------------------------------------||-6-6-6-6---6-6/9-9-9-9/11-11-11-11-11-11-11\9-9-||-4-4-4-4---4-x-x-x-x-x-x--x--x--x--x--x--x--x-x-||-4-4-4-4---4-4/7-7-7-7/9--9--9--9--9--9--9-\7-7-||-4-4-4-4---4-0-0-0-0-0-0--0--0--0--0--0--0--0-0-|
|-----------------------------------------------------||-----------------------------------------------------||-6-6-6-6---6-6/9-9-9-9/11-11-11-11-14-14-14-13-14-13-||-4-4-4-4---4-x-x-x-x-x-x--x--x--x--x--x--x--x--x--x--||-4-4-4-4---4-4/7-7-7-7/9--9--9--9--12-12-12-11-12-11-||-4-4-4-4---4-0-0-0-0-0-0--0--0--0--0--0--0--0--0--0--|
Bridge:
|------------------------------------------------------------------------------------------------------||---------------------------------------------------------------------------7--------------------------||---------------------------------------------------------------------------6--------------------------||--9-9-9-9-9---------------7-7-7-7-7-------------5-5-5-5-5------------4-4-4-4-4------------------------||--9-9-9-9-9---------------7-7-7-7-7-------------5-5-5-5-5------------4-4-4-4-4------------------------||--9-9-9-9-9-11-12-11-9----7-7-7-7-7-9-11-9-7----5-5-5-5-5-7-9-7-5----4-4-4-4-4-11-h-12-11-9-----------|
.......... ........ .......|--------------------------------------------------------------------||--------------------------------------------------------------------||--9-9-9-9-9---------------7-7-7-7-7-------------5-5-5-5-5-----------||--9-9-9-9-9---------------7-7-7-7-7-------------5-5-5-5-5-----------||--9-9-9-9-9-11-12-11-9----7-7-7-7-7-9-11-9-7----5-5-5-5-5-7-9-7-5---| .......... ........ .......
|---------------------------------------------------------------------------------------------------------------------||---------------------------------------------------------------------------------------------------------------------||-4-4-5-5-4-4-10-10-----------4-4-5-5-4-4-10-10-----------4-4-5-5-4-4-10-10-9-7-9-7---4-4-5-5-4-4-10-10----------4-4--||-4-4-5-5-4-4-10-10-9-7-9-7---4-4-5-5-4-4-10-10-9-7-9-7---4-4-5-5-4-4-10-10-9-7-9-7---4-4-5-5-4-4-10-10-9-7-9-7--4-4--||-4-4-5-5-4-4-10-10-9-7-9-7---4-4-5-5-4-4-10-10-9-7-9-7---4-4-5-5-4-4-10-10-9-7-9-7---4-4-5-5-4-4-10-10-9-7-9-7--4-4--| ....... ....... ....... .......
Outro:
|----------||----------||----------||-11-------||--9-----9-||--9-----0-|
|--------------------------------------------------------------------||--------------------------------------------------------------------||--------------------------------------------------------------------||-11----11----11----11---------9-----------------------------12-11---||--9-----9-----9-----9-----9-9-9-0-9-----9-----9-----9-----9---------||--9-9-9-9-9-9-9-9-9-9-9-9-9-9-9-0-0-0-0-0-0-0-0-0-0-0-0-0---------0-|
|----------------||----------------||----------------||-11---------11--||--9------9---9--||--9-----0-------|
|--------------------------------------------------------------------||--------------------------------------------------------------------||--------------------------------------------------------------------||-11----11----11----11---------9------------------------------11-----||--9-----9-----9-----9-----9-9-9-0-------------------------9---9-----||--9-9-9-9-9-9-9-9-9-9-9-9-9-9-9-0----------------------0------------|
Please rate this tab:
x1.0