My Kinda Girl tab with lyrics by Chickenfoot - Easy chords and tabs for guitar

Chickenfoot – My Kinda Girl tab

Artist: Chickenfoot
Song: My Kinda Girl
Album: Chickenfoot
Register: lioonel_dg
E-Mail: lioonel_dg@hotmail.fr

Tuning: DADGBE

  Intro 1:

Sorry but I don't remember this part. If you know it, send me an e-mail please.

  Intro 2: (x2)

---------------------------------|---------------------------------|----------------2-2222222222222--|--2-222--0-000--2-2222222222222--|--2-222--0-000--0-0000000000000--|--2-222--0-000-------------------|
Verse 1: (x4)
---------------------------------|---------------------------------|----------------2-2222222222222--|--2-222--0-000--2-2222222222222--|--2-222--0-000--0-0000000000000--|--2-222--0-000-------------------|
Chorus 1: (x4)
--------------------------------------------|--------------------------------------------|--------------------------------------------|--5-555--0-000--10-10-10-10-10-10-10-10-10--|--5-555--0-000--10-10-10-10-10-10-10-10-10--|--5-555--0-000--10-10-10-10-10-10-10-10-10--|
Solo 1:
--12--------12--------12----12~~-12p10-------------12----------------------|--15b17_____---12--15----15------------12----15b17----15-12----------------|------------------------------------------------------------14-12-14-14b16-|---------------------------------------------------------------------------|---------------------------------------------------------------------------|---------------------------------------------------------------------------|
-------------------------------------------------------------------------|-------------------------------------------------------------------------|--12~~-------------------------------------------------------------14~~--|-------14p12----12-14--14p12-----------------------11----11-12~~11-------|-------------14--------------14-12-10-14-12~~--/12----12-----------------|-------------------------------------------------------------------------|
Verse 2: (x2)
---------------------------------|---------------------------------|----------------2-2222222222222--|--2-222--0-000--2-2222222222222--|--2-222--0-000--0-0000000000000--|--2-222--0-000-------------------|
Chorus 2: (x4)
--------------------------------------------|--------------------------------------------|--------------------------------------------|--5-555--0-000--10-10-10-10-10-10-10-10-10--|--5-555--0-000--10-10-10-10-10-10-10-10-10--|--5-555--0-000--10-10-10-10-10-10-10-10-10--|
Build Up: (x1)
-----------------------------------------------------------------------|-----------------------------------------------------------------------|-----------------------------------------------------------------------|--2-xxxxx-2-5-7-0-2-xxxxx-2-4-5-4-0-2-xxxxx-2-5-7-0-2-xxxxx-2-4-5-4-0--|--2-xxxxx-2-5-7-0-2-xxxxx-2-4-5-4-0-2-xxxxx-2-5-7-0-2-xxxxx-2-4-5-4-0--|--2-xxxxx-2-5-7-0-2-xxxxx-2-4-5-4-0-2-xxxxx-2-5-7-0-2-xxxxx-2-4-5-4-0--|
Bridge: (x2)
----------------------------------|----------------------------------|--4444444---------22222222222222--|--4444444-0000000-22222222222222--|--2222222-0000000-00000000000000--|----------0000000-----------------|
Solo 2: Sorry one more time but I really don't know this solo ... But I think it's in B minor scale. So if you know it, send me an e-mail. Build Up 2:
---------------------------------------------------------------|---------------------------------------------------------------|---------------------------------------------------------------|--2-xxxxx-2-5-7-0-2-xxxxx-2-4-5-4-0-2-xxxxx-2-5-7-0-2-xxxxx-2--|--2-xxxxx-2-5-7-0-2-xxxxx-2-4-5-4-0-2-xxxxx-2-5-7-0-2-xxxxx-2--|--2-xxxxx-2-5-7-0-2-xxxxx-2-4-5-4-0-2-xxxxx-2-5-7-0-2-xxxxx-2--|
Verse 3: (x2)
---------------------------------|---------------------------------|----------------2-2222222222222--|--2-222--0-000--2-2222222222222--|--2-222--0-000--0-0000000000000--|--2-222--0-000-------------------|
Chorus 3: (x6)
--------------------------------------------|--------------------------------------------|--------------------------------------------|--5-555--0-000--10-10-10-10-10-10-10-10-10--|--5-555--0-000--10-10-10-10-10-10-10-10-10--|--5-555--0-000--10-10-10-10-10-10-10-10-10--|
Outro :
-----------------------------------------------------------------------|-----------------------------------------------------------------------|-----------------------------------------------------------------------|--2-xxxxx-2-5-7-0-2-xxxxx-2-4-5-4-0-2-xxxxx-2-5-7-0-2-xxxxx-2-xxxxx-2--|--2-xxxxx-2-5-7-0-2-xxxxx-2-4-5-4-0-2-xxxxx-2-5-7-0-2-xxxxx-2-xxxxx-2--|--2-xxxxx-2-5-7-0-2-xxxxx-2-4-5-4-0-2-xxxxx-2-5-7-0-2-xxxxx-2-xxxxx-2--|
That's it for "My Kinda Girl" =) Thanks for ranks.
Please rate this tab:
x1.0