Children Of Bodom – Hellhounds On My Trail tab

Song: Hellhounds On My Trail
Band: Children Of Bodom
Album: Blooddrunk (2008)

Tabbed my Mitch DuCran

Rythm Guitar 1:

D||------------------|-------------------------|A||------------------|-------------------------|F||------------------|-------------------------|C||------------------|--5------------9----8----|G||------------------|--3------------7----6----|C||------------------|-------0-0-0-0-----------|
--------------------------------|------------------------------|--------------------------------|------------------------------|--------------------------------|------------------------------|--7--------------------------3--|--2----------6--5----------9--|--5--------------------------1--|--0----------4--3----------7--|-----0-0-0-0-0-0-0-0-0-0-0-0----|-----0-0-0-0-------0-0-0-0----|
---------------------------------|-------------------------------|---------------------------------|-------------------------------|---------------------------------|-------------------------------|--10--------------------------6--|--5----------8--7----------10--|--8---------------------------4--|--3----------6--5----------8---|------0-0-0-0-0-0-0-0-0-0-0-0----|-----0-0-0-0-------0-0-0-0-----|
--------------------------------|------------------------------|--------------------------------|------------------------------|--------------------------------|------------------------------|--9--------------------------3--|--2----------6--5----------9--|--7--------------------------1--|--0----------4--3----------7--|-----0-0-0-0-0-0-0-0-0-0-0-0----|-----0-0-0-0-------0-0-0-0----|
----------------------------------|-----------------------|----------------------------------|-----------------------|----------------------------------|-----------------------|--10------------------------------|--5----7----10----8----|--8-------------------------------|--3----5----8-----6----|------0-0-0-0-0-0-0-0-0-0-0-0-0-0-|-----------------------|
---------------------------|--------------------------|---------------------------|--------------------------|---------------------------|-----------------------5--|---------------------------|--------------------7-----|--5--------8--7--------10--|--8--------5--4--8--------|-----0--0--------0--0------|-----0--0-----------------|
---------------------------|--------------------------|---------------------------|--------------------------|---------------------------|--------------------------|---------------------------|--------------------------|--5--------8--7--------10--|--8--------3--2--0--2--3--|-----0--0--------0--0------|-----0--0--3--2--0--------|
--------------------------|--------------------------|--------------------------|--------------------------|--------------------------|-----------------------5--|-----------3--2--------5--|--3-----------------7-----|--5-----------------------|-----------5--4--8--------|-----0--0--------1--1-----|-----0--0-----------------|
---------------------------|-----------------------|---------------------------|---------------------------|-----------------------|---------------------------|---------------------------|-----------------------|---------------------------|---------------------------|--5----7----10----8----|--7------------------------|--5--------8--7--------10--|--3----5----8-----6----|--5--------8--7--------10--|-----0--0--------0--0------|-----------------------|-----0--0--------0--0------|
--------------------------|---------------------------|--------------------------|---------------------------|-----------------------5--|---------------------------|--------------------7-----|---------------------------|--8--------5--4--8--------|--5--------8--7--------10--|-----0--0-----------------|-----0--0--------0--0------|
--------------------------|--------------------------|--------------------------|--------------------------|--------------------------|--------------------------|--------------------------|-----------3--2--------5--|--8--------3--2--0--2--3--|--5-----------------------|-----0--0--3--2--0--------|-----0--0--------1--1-----|
--------------------------|---------------------------|--------------------------|---------------------------|-----------------------5--|---------------------------|--3-----------------7-----|---------------------------|-----------5--4--8--------|--5--------8--7--0--0--10--|-----0--0-----------------|-----0--0------------------|
------------------------------|-------------------------|------------------------------|-------------------------|------------------------------|-------------------------|------------------------------|--------------5----------|--12--8--8--12--10--7--7--10--|--0--0--0--0--3----0--0--|------------------------------|--0--0--0--0-------0--0--|
------------------------|------------------------|-----------------------|------------------------|------------------------|-----------------------|------------------------|------------------------|-----------------------|--------7----------8----|-------------5----------|-------3----------2----|--0--0--5----0--0--6----|--3--2--0----3----3--2--|--0----1----3--2--0----|--0--0-------0--0-------|--3--2--0---------3--2--|--0---------3--2-------|
-------------------------|------------------------|------------------------|-------------------------|------------------------|------------------------|-------------------------|------------------------|------------------------|--------------8----------|--------5----------7----|-------------3----------|--0--0--0--0--6----0--0--|--0--0--3----0--0--5----|--3--2--0----1----3--2--|--0--0--0--0-------0--0--|--0--0-------0--0-------|--3--2--0---------3--2--|
------------------------|-------------------------|------------------------|------------------------|-------------------------|------------------------|------------------------|-------------------------|------------------------|--2----5/-7-------------|--------------5----------|--------7----------8----|--0----------8--7--5----|--0--0--0--0--3----0--0--|--0--0--5----0--0--6----|------------------------|--0--0--0--0-------0--0--|--0--0-------0--0-------|
------------------------|-----------------------|-------------------------|------------------------|-----------------------|-------------------------|------------------------|-----------------------|-------------------------|-------------5----------|-------3----------2----|--------------8----------|--3--2--0----3----3--2--|--0----1----3--2--0----|--0--0--0--0--6----0--0--|--3--2--0---------3--2--|--0---------3--2-------|--0--0--0--0-------0--0--|
------------------------|------------------------|------------------------|------------------------|------------------------|------------------------|------------------------|------------------------|------------------------|--------5----------7----|-------------3----------|--2----5/-7-------------|--0--0--3----0--0--5----|--3--2--0----1----3--2--|--0----------8--7--5----|--0--0-------0--0-------|--3--2--0---------3--2--|------------------------|
---------------------------|--------------------------|---------------------------|--------------------------|---------------------------|-----------------------5--|---------------------------|--------------------7-----|--5--------8--7--------10--|--8--------5--4--8--------|-----0--0--------0--0------|-----0--0-----------------|
---------------------------|--------------------------|---------------------------|--------------------------|---------------------------|--------------------------|---------------------------|--------------------------|--5--------8--7--------10--|--8--------3--2--0--2--3--|-----0--0--------0--0------|-----0--0--3--2--0--------|
--------------------------|--------------------------|--------------------------|--------------------------|--------------------------|-----------------------5--|-----------3--2--------5--|--3-----------------7-----|--5-----------------------|-----------5--4--8--------|-----0--0--------1--1-----|-----0--0-----------------|
---------------------------|------------------------------|---------------------------|------------------------------|---------------------------|------------------------------|---------------------------|------------------------------|--5--------8--7--0--0--10--|--12--8--8--12--10--7--7--10--|-----0--0------------------|------------------------------|
---------------------------|--------------------------|---------------------------|--------------------------|---------------------------|-----------------------5--|--7------------------------|--------------------7-----|--5--------8--7--------10--|--8--------5--4--8--------|-----0--0--------0--0------|-----0--0-----------------|
---------------------------|--------------------------|---------------------------|--------------------------|---------------------------|--------------------------|---------------------------|--------------------------|--5--------8--7--------10--|--8--------3--2--0--2--3--|-----0--0--------0--0------|-----0--0--3--2--0--------|
--------------------------|--------------------------|--------------------------|--------------------------|--------------------------|-----------------------5--|-----------3--2--------5--|--3-----------------7-----|--5-----------------------|-----------5--4--8--------|-----0--0--------1--1-----|-----0--0-----------------|
---------------------------|-----------------------||--------------------------|---------------------------|-----------------------||--------------------------|---------------------------|-----------------------||*-------------------------|---------------------------|--5----7----10----8----||*--7--7--7--5----5--5-----|--5--------8--7--0--0--10--|--3----5----8-----6----||---5--5--5--3----3--3--5--|-----0--0------------------|-----------------------||-----------------------5--|
------------------------|-------------------------|--------------------------||------------------------|-------------------------|--------------------------||------------------------|-------------------------|-------------------------*||------------------------|----------------------5--|-------------------------*||----5--5--7----7--7--8--|----2--2--2--2--2--2--3--|----1--1--1--1--1--1--1---||----5--5--7----7--7--8--|----2--2--2--2--2--2-----|----1--1--1--1--1--1--1---||
-------------------------|-------------------------|-------------------------|-------------------------|-------------------------|-------------------------|-------------------------|-------------------------|-------------------------|----------------------5--|----2--2--2--2--2--2--2--|--------------5----------|----2--2--2--2--2--2--3--|----0--0--0--0--0--0--0--|--0--0--0--0--3----0--0--|----2--2--2--2--2--2-----|-------------------------|--0--0--0--0-------0--0--|
------------------------|------------------------|-----------------------|------------------------|------------------------|-----------------------|------------------------|------------------------|-----------------------|--------7----------8----|-------------5----------|-------3----------2----|--0--0--5----0--0--6----|--3--2--0----3----3--2--|--0----1----3--2--0----|--0--0-------0--0-------|--3--2--0---------3--2--|--0---------3--2-------|
-------------------------|------------------------|------------------------|-------------------------|------------------------|------------------------|-------------------------|------------------------|------------------------|--------------8----------|--------5----------7----|-------------3----------|--0--0--0--0--6----0--0--|--0--0--3----0--0--5----|--3--2--0----1----3--2--|--0--0--0--0-------0--0--|--0--0-------0--0-------|--3--2--0---------3--2--|
------------------------|-------------------------|------------------------|------------------------|-------------------------|------------------------|------------------------|-------------------------|------------------------|--2----5/-7-------------|--------------5----------|--------7----------8----|--0----------8--7--5----|--0--0--0--0--3----0--0--|--0--0--5----0--0--6----|------------------------|--0--0--0--0-------0--0--|--0--0-------0--0-------|
------------------------|-----------------------|-------------------------|------------------------|-----------------------|-------------------------|------------------------|-----------------------|-------------------------|-------------5----------|-------3----------2----|--------------8----------|--3--2--0----3----3--2--|--0----1----3--2--0----|--0--0--0--0--6----0--0--|--3--2--0---------3--2--|--0---------3--2-------|--0--0--0--0-------0--0--|
------------------------|------------------------|------------------------|------------------------|------------------------|------------------------|------------------------|------------------------|------------------------|--------5----------7----|-------------3----------|--2----5/-7-------------|--0--0--3----0--0--5----|--3--2--0----1----3--2--|--0----------8--7--5----|--0--0-------0--0-------|--3--2--0---------3--2--|------------------------|
--------------------------|--------------------------|-----------------------|--------------------------|--------------------------|-----------------------|--------------------------|--------------------------|-----------------------|--------------------------|--------------------------|-----------------------|--6--6--6--6--6--6--6--6--|--6--6--6--6--------------|--------------3--------|--------------------------|--------------4--4--4--4--|--5--5--5--5--3--------|
-----------------------|--------------------------|--------------------------|-----------------------|--------------------------|--------------------------|-----------------------|--------------------------|--------------------------|-----------------------|--------------------------|--------------------------|--------------8--------|--6--6--6--6--6--6--6--6--|--6--6--6--6--------------|--5--5--5--5--8--------|--------------------------|--------------4--4--4--4--|
-----------------------|-----------------------|--------------------------|-----------------------|-----------------------|--------------------------|-----------------------|-----------------------|--------------------------|-----------------------|-----------------------|--------------------------|--------------3--------|--------------8--------|--2--2--2--2--2--2--2--2--|--5--5--5--5--3--------|--5--5--5--5--8--------|--------------------------|
--------------------------|-----------------------|-----------------------|--------------------------|-----------------------|-----------------------|--------------------------|-----------------------|-----------------------|--------------------------|--------------6--------|-----------------------|--2--2--2--2--5-----------|--------------4--------|--------------4--------|-----------------0--0--0--|--1--1--1--1-----------|--1--1--1--1--4--------|
--------------------------|--------------------------|-----------------------|--------------------------|--------------------------|-----------------------|--------------------------|--------------------------|-----------------------|--------------------------|--------------------------|--------------6--------|--2--2--2--2--2--2--2--2--|--2--2--2--2--5-----------|--------------4--------|--------------------------|-----------------0--0--0--|--1--1--1--1-----------|
-----------------------|---------------------|----------------------|-----------------------|---------------------|----------------------|-----------------------|---------------------|----------------------|-----------------------|--7--------5--7------|----------------------|--------------4--------|--5--------3--5------|----------------------|--1--1--1--1--4--------|---------------------|----------5--6--3--6--|
--------------------------|--------------------------|--------------------------|--------------------------|--------------------------|--------------------------|--7-----------5--7--------|--------------------------|--5-----------3--5--------|--------------5--6--3--6--|-----0--0--0--------0--0--|--0--0--0--0--5--6--3--6--|
--------------------------|----------------------|--------------------------|--------------------------|----------------------|--------------------------|--------------------------|----------------------|--------------------------|--------------------------|----------------------|--------------------------|--5-----------3--5--------|--6----3----6----5----|--5-----------3--5--------|-----0--0--0--------0--0--|--6----3----6----5----|-----0--0--0--------0--0--|
--------------------------|--------------------------|--------------------------|--------------------------|--------------------------|--------------------------|--------------------------|--------------------------|--------------5--6--3--6--|--5-----------3--5--------|--0--0--0--0--5--6--3--6--|-----0--0--0--------0--0--|
------------------------------------|--------------------------|------------------------------------|--------------------------|------------------------------------|--------------------------|--------------5----------------5----|--7-----------5--7--------|--------------3----------------3----|--5-----------3--5--------|--3--3--3--3-------3--3--3--3-------|-----0--0--0--------0--0--|
--------------------------|--------------------------|----------------------|--------------------------|--------------------------|----------------------|--------------------------|--------------------------|----------------------|--------------------------|--------------------------|----------------------|--------------5--6--3--6--|--5-----------3--5--------|--6----3----6----5----|--0--0--0--0--5--6--3--6--|-----0--0--0--------0--0--|--6----3----6----5----|
--------------------------|--------------------------|--------------------------|--------------------------|--------------------------|--------------------------|--------------------------|--------------------------|--5-----------3--5--------|--------------5--6--3--6--|-----0--0--0--------0--0--|--0--0--0--0--5--6--3--6--|
--------------------------|------------------------------------|--------------------------|------------------------------------|--------------------------|------------------------------------|--------------------------|--------------5----------------5----|--5-----------3--5--------|--------------3----------------3----|-----0--0--0--------0--0--|--3--3--3--3-------3--3--3--3-------|
-------------------------|-------------------------|------------------------|-------------------------|-------------------------|------------------------|-------------------------|-------------------------|------------------------|-------------------------|-------------------------|------------------------|--2--2--2--2--0----5--5--|--5--5--0----2--2--2--2--|--0----5--5--5--5--0----|--2--2--2--2--0----5--5--|--5--5--0----2--2--2--2--|--0----5--5--5--5--0----|
------------------------|-------------------------|-------------------------|------------------------|-------------------------|-------------------------|------------------------|-------------------------|-------------------------|------------------------|-------------------------|-------------------------|--2--2--3/-2--0--2------|--2--2--2--2--0----3--3--|--3--3--0----2--2--2--2--|--2--2--3/-2--0--2------|--2--2--2--2--0----3--3--|--3--3--0----2--2--2--2--|
------------------------|-----------------------|-------------------------|------------------------|-----------------------|-------------------------|------------------------|-----------------------|-------------------------|------------------------|--4----4--4--5--5------|-------------------------|--0----3--3--3--3--0----|--2----2--2--3--3------|--2--2--2--2--0----5--5--|--0----3--3--3--3--0----|-----------------------|--2--2--2--2--0----5--5--|
-------------------------|------------------------|------------------------|-------------------------|------------------------|------------------------|-------------------------|------------------------|------------------------|-------------------------|------------------------|------------------------|--5--5--0----2--2--2--2--|--0----5--5--5--5--0----|--2--2--3/-2--0--2------|--5--5--0----2--2--2--2--|--0----5--5--5--5--0----|--2--2--3/-2--0--2------|
-------------------------|-------------------------|------------------------|-------------------------|-------------------------|------------------------|-------------------------|-------------------------|------------------------|-------------------------|-------------------------|------------------------|--2--2--2--2--0----3--3--|--3--3--0----2--2--2--2--|--0----3--3--3--3--0----|--2--2--2--2--0----3--3--|--3--3--0----2--2--2--2--|--0----3--3--3--3--0----|
-----------------------|-------------------------|-------------------------|-----------------------|-------------------------|-------------------------|-----------------------|-------------------------|-------------------------|--4----4--4--5--5------|-------------------------|-------------------------|--2----2--2--3--3------|--2--2--2--2--0----5--5--|--5--5--0----2--2--2--2--|-----------------------|--2--2--2--2--0----5--5--|--5--5--0----2--2--2--2--|
------------------------|------------------------|-------------------------|------------------------|------------------------|-------------------------|------------------------|------------------------|-------------------------|------------------------|------------------------|-------------------------|--0----5--5--5--5--0----|--2--2--3/-2--0--2------|--2--2--2--2--0----3--3--|--0----5--5--5--5--0----|--2--2--3/-2--0--2------|--2--2--2--2--0----3--3--|
-------------------------|------------------------|-------------------------|-------------------------|------------------------|-------------------------|-------------------------|------------------------|-------------------------|-------------------------|-------------------7----|--4----7/-9--------------|--3--3--0----2--2--2--2--|--0----2--2--2--2--5----|--2----------10--9--7----|--3--3--0----2--2--2--2--|--0----2--2--2--2-------|-------------------------|
-------------------------|------------------------|------------------------|-------------------------|------------------------|------------------------|-------------------------|------------------------|------------------------|--------------5----------|--------7----------8----|-------------5----------|--0--0--0--0--3----0--0--|--0--0--5----0--0--6----|--3--2--0----3----3--2--|--0--0--0--0-------0--0--|--0--0-------0--0-------|--3--2--0---------3--2--|
-----------------------|-------------------------|------------------------|-----------------------|-------------------------|------------------------|-----------------------|-------------------------|------------------------|-------3----------2----|--------------8----------|--------5----------7----|--0----1----3--2--0----|--0--0--0--0--6----0--0--|--0--0--3----0--0--5----|--0---------3--2-------|--0--0--0--0-------0--0--|--0--0-------0--0-------|
------------------------|------------------------|-------------------------|------------------------|------------------------|-------------------------|------------------------|------------------------|-------------------------|-------------3----------|--2----5/-7-------------|--------------5----------|--3--2--0----1----3--2--|--0----------8--7--5----|--0--0--0--0--3----0--0--|--3--2--0---------3--2--|------------------------|--0--0--0--0-------0--0--|
------------------------|------------------------|-----------------------|------------------------|------------------------|-----------------------|------------------------|------------------------|-----------------------|--------7----------8----|-------------5----------|-------3----------2----|--0--0--5----0--0--6----|--3--2--0----3----3--2--|--0----1----3--2--0----|--0--0-------0--0-------|--3--2--0---------3--2--|--0---------3--2-------|
-------------------------|------------------------|------------------------|-------------------------|------------------------|------------------------|-------------------------|------------------------|------------------------|--------------8----------|--------5----------7----|-------------3----------|--0--0--0--0--6----0--0--|--0--0--3----0--0--5----|--3--2--0----1----3--2--|--0--0--0--0-------0--0--|--0--0-------0--0-------|--3--2--0---------3--2--|
------------------------|---------------------------|--------------------------|------------------------|---------------------------|--------------------------|------------------------|---------------------------|-----------------------5--|--2----5/-7-------------|---------------------------|--------------------7-----|--0----------8--7--5----|--5--------8--7--------10--|--8--------5--4--8--------|------------------------|-----0--0--------0--0------|-----0--0-----------------|
---------------------------|--------------------------|---------------------------|--------------------------|---------------------------|--------------------------|---------------------------|--------------------------|--5--------8--7--------10--|--8--------3--2--0--2--3--|-----0--0--------0--0------|-----0--0--3--2--0--------|
--------------------------|--------------------------|--------------------------|--------------------------|--------------------------|-----------------------5--|-----------3--2--------5--|--3-----------------7-----|--5-----------------------|-----------5--4--8--------|-----0--0--------1--1-----|-----0--0-----------------|
---------------------------|------------------------------|---------------------------|------------------------------|---------------------------|------------------------------|---------------------------|------------------------------|--5--------8--7--0--0--10--|--12--8--8--12--10--7--7--10--|-----0--0------------------|------------------------------|
---------------------------|--------------------------|---------------------------|--------------------------|---------------------------|-----------------------5--|---------------------------|--------------------7-----|--5--------8--7--------10--|--8--------5--4--8--------|-----0--0--------0--0------|-----0--0-----------------|
---------------------------|--------------------------|---------------------------|--------------------------|---------------------------|--------------------------|---------------------------|--------------------------|--5--------8--7--------10--|--8--------3--2--0--2--3--|-----0--0--------0--0------|-----0--0--3--2--0--------|
--------------------------|--------------------------|--------------------------|--------------------------|--------------------------|-----------------------5--|-----------3--2--------5--|--3-----------------7-----|--5-----------------------|-----------5--4--8--------|-----0--0--------1--1-----|-----0--0-----------------|
---------------------------|-----------------------||--------------------------|---------------------------|-----------------------||--------------------------|---------------------------|-----------------------||*-------------------------|---------------------------|--5----7----10----8----||*--7--7--7--5----5--5-----|--5--------8--7--0--0--10--|--3----5----8-----6----||---5--5--5--3----3--3--5--|-----0--0------------------|-----------------------||-----------------------5--|
3x------------------------|-------------------------|--------------------------||------------------------|-------------------------|--------------------------||------------------------|-------------------------|-------------------------*||------------------------|----------------------5--|-------------------------*||----5--5--7----7--7--8--|----2--2--2--2--2--2--3--|----1--1--1--1--1--1--1---||----5--5--7----7--7--8--|----2--2--2--2--2--2-----|----1--1--1--1--1--1--1---||
------------------------|-------------------------|---------------------|------------------------|-------------------------|---------------------|------------------------|-------------------------|---------------------|--3------------------5--|----2--2--2--2--2--2--2--|--7--------5--7------|--1----x--3----3--3--3--|----0--0--0--0--0--0--0--|--5--------3--5------|-------x--3----3--3-----|-------------------------|---------------------|
------------------------|--------------------------|-------------------||------------------------|-----------------5--------|-------------------||------------------------|-------------------5------|-------------------||------------------------|---------------------5----|-------------------||--5--6--3--5--6----3----|--6----5----0----------5--|--0----------------||--------------6----3----|--6----5----0-------------|--0----------------||
--------------------------------------------------------------------------- Rythm Guitar 2
D||------------------|-------------------------|--------------------|A||------------------|-------------------------|--------------------|F||------------------|-------------------------|--------------------|C||------------------|--5------------9----8----|--7--------------3--|G||------------------|--3------------7----6----|--5--------------1--|C||------------------|-------0-0-0-0-----------|--------------------|
----------------------|---------------------|-----------------------|----------------------|---------------------|-----------------------|----------------------|---------------------|-----------------------|--2------6--5------9--|--10--------------6--|--5------8--7------10--|--0------4--3------7--|--8---------------4--|--3------6--5------8---|----------------------|---------------------|-----------------------|
--------------------------------|------------------------------|--------------------------------|------------------------------|--------------------------------|------------------------------|--9--------------------------3--|--2----------6--5----------9--|--7--------------------------1--|--0----------4--3----------7--|-----0-0-0-0-0-0-0-0-0-0-0-0----|-----0-0-0-0-------0-0-0-0----|
----------------------------------|-----------------------|----------------------------------|-----------------------|----------------------------------|-----------------------|--10------------------------------|--5----7----10----8----|--8-------------------------------|--3----5----8-----6----|------0-0-0-0-0-0-0-0-0-0-0-0-0-0-|-----------------------|
---------------------------|--------------------------|---------------------------|--------------------------|---------------------------|--------------------------|---------------------------|--------------------3--6--|--5--------8--7--------10--|--8--------------5--------|-----0--0--------0--0------|-----0--0--5--6-----------|
---------------------------|--------------------------|---------------------------|--------------------------|---------------------------|--------------------------|---------------------------|--------------------------|--5--------8--7--------10--|--8--------3--2--0--2--3--|-----0--0--------0--0------|-----0--0--3--2--0--2--3--|
--------------------------|--------------------------|--------------------------|--------------------------|--------------------------|--------------------------|-----------3--2--------5--|--3-----------------3--6--|--5-----------------------|-----------------5--------|-----0--0--------1--1-----|-----0--0--5--6-----------|
---------------------------|-----------------------|---------------------------|---------------------------|-----------------------|---------------------------|---------------------------|-----------------------|---------------------------|---------------------------|--5----7----10----8----|---------------------------|--5--------8--7--------10--|--3----5----8-----6----|--5--------8--7--------10--|-----0--0--------0--0------|-----------------------|-----0--0--------0--0------|
--------------------------|---------------------------|--------------------------|---------------------------|--------------------------|---------------------------|--------------------3--6--|---------------------------|--8--------------5--------|--5--------8--7--------10--|-----0--0--5--6-----------|-----0--0--------0--0------|
--------------------------|--------------------------|--------------------------|--------------------------|--------------------------|--------------------------|--------------------------|-----------3--2--------5--|--8--------3--2--0--2--3--|--5-----------------------|-----0--0--3--2--0--2--3--|-----0--0--------1--1-----|
--------------------------|---------------------------|--------------------------|---------------------------|--------------------------|---------------------------|--3-----------------3--6--|---------------------------|-----------------5--------|--5--------8--7--0--0--10--|-----0--0--5--6-----------|-----0--0------------------|
--------------------------|-------------------------|------------------------|--------------------------|-------------------------|------------------------|--------------------------|-------------------------|------------------------|--------------------------|--------------5----------|--------7----------8----|--8--5--5--8--7--3--3--7--|--0--0--0--0--3----0--0--|--0--0--5----0--0--6----|--------------------------|--0--0--0--0-------0--0--|--0--0-------0--0-------|
------------------------|-----------------------|-------------------------|------------------------|-----------------------|-------------------------|------------------------|-----------------------|-------------------------|-------------5----------|-------3----------2----|--------------8----------|--3--2--0----3----3--2--|--0----1----3--2--0----|--0--0--0--0--6----0--0--|--3--2--0---------3--2--|--0---------3--2-------|--0--0--0--0-------0--0--|
------------------------|------------------------|------------------------|------------------------|------------------------|------------------------|------------------------|------------------------|------------------------|--------5----------7----|-------------3----------|--2----5/-7-------------|--0--0--3----0--0--5----|--3--2--0----1----3--2--|--0----------8--7--5----|--0--0-------0--0-------|--3--2--0---------3--2--|------------------------|
-------------------------|------------------------|------------------------|-------------------------|------------------------|------------------------|-------------------------|------------------------|------------------------|--------------5----------|--------7----------8----|-------------5----------|--0--0--0--0--3----0--0--|--0--0--5----0--0--6----|--3--2--0----3----3--2--|--0--0--0--0-------0--0--|--0--0-------0--0-------|--3--2--0---------3--2--|
-----------------------|-------------------------|------------------------|-----------------------|-------------------------|------------------------|-----------------------|-------------------------|------------------------|-------3----------2----|--------------8----------|--------5----------7----|--0----1----3--2--0----|--0--0--0--0--6----0--0--|--0--0--3----0--0--5----|--0---------3--2-------|--0--0--0--0-------0--0--|--0--0-------0--0-------|
------------------------|------------------------|---------------------------|------------------------|------------------------|---------------------------|------------------------|------------------------|---------------------------|-------------3----------|--2----5/-7-------------|---------------------------|--3--2--0----1----3--2--|--0----------8--7--5----|--5--------8--7--------10--|--3--2--0---------3--2--|------------------------|-----0--0--------0--0------|
--------------------------|---------------------------|--------------------------|---------------------------|--------------------------|---------------------------|--------------------3--6--|---------------------------|--8--------------5--------|--5--------8--7--------10--|-----0--0--5--6-----------|-----0--0--------0--0------|
--------------------------|--------------------------|--------------------------|--------------------------|--------------------------|--------------------------|--------------------------|-----------3--2--------5--|--8--------3--2--0--2--3--|--5-----------------------|-----0--0--3--2--0--2--3--|-----0--0--------1--1-----|
--------------------------|---------------------------|--------------------------|---------------------------|--------------------------|---------------------------|--3-----------------3--6--|---------------------------|-----------------5--------|--5--------8--7--------10--|-----0--0--5--6-----------|-----0--0--------0--0------|
--------------------------|---------------------------|--------------------------|---------------------------|--------------------------|---------------------------|--------------------------|---------------------------|--8--5--5--8--7--3--3--7--|--5--------8--7--------10--|--------------------------|-----0--0--------0--0------|
--------------------------|---------------------------|--------------------------|---------------------------|--------------------------|---------------------------|--------------------3--6--|---------------------------|--8--------------5--------|--5--------8--7--------10--|-----0--0--5--6-----------|-----0--0--------0--0------|
--------------------------|--------------------------|--------------------------|--------------------------|--------------------------|--------------------------|--------------------------|-----------3--2--------5--|--8--------3--2--0--2--3--|--5-----------------------|-----0--0--3--2--0--2--3--|-----0--0--------1--1-----|
--------------------------|---------------------------|-----------------------|--------------------------|---------------------------|-----------------------|--------------------------|---------------------------|-----------------------|--3-----------------3--6--|---------------------------|--5----7----10----8----|-----------------5--------|--5--------8--7--0--0--10--|--3----5----8-----6----|-----0--0--5--6-----------|-----0--0------------------|-----------------------|
|--------------------------|------------------------|-------------------------||--------------------------|------------------------|-------------------------||*-------------------------|------------------------|-------------------------||*--7--7--7--5----5--5-----|------------------------|----------------------5--||---5--5--5--3----3--3--5--|----5--5--7----7--7--8--|----2--2--2--2--2--2--3--||-----------------------5--|----5--5--7----7--7--8--|----2--2--2--2--2--2-----|
--------------------------||-------------------------|-------------------------|--------------------------||-------------------------|-------------------------|-------------------------*||-------------------------|-------------------------|-------------------------*||----------------------5--|----2--2--2--2--2--2--2--|----1--1--1--1--1--1--1---||----2--2--2--2--2--2--3--|----0--0--0--0--0--0--0--|----1--1--1--1--1--1--1---||----2--2--2--2--2--2-----|-------------------------|
-------------------------|------------------------|------------------------|-------------------------|------------------------|------------------------|-------------------------|------------------------|------------------------|--------------5----------|--------7----------8----|-------------5----------|--0--0--0--0--3----0--0--|--0--0--5----0--0--6----|--3--2--0----3----3--2--|--0--0--0--0-------0--0--|--0--0-------0--0-------|--3--2--0---------3--2--|
-----------------------|-------------------------|------------------------|-----------------------|-------------------------|------------------------|-----------------------|-------------------------|------------------------|-------3----------2----|--------------8----------|--------5----------7----|--0----1----3--2--0----|--0--0--0--0--6----0--0--|--0--0--3----0--0--5----|--0---------3--2-------|--0--0--0--0-------0--0--|--0--0-------0--0-------|
------------------------|------------------------|-------------------------|------------------------|------------------------|-------------------------|------------------------|------------------------|-------------------------|-------------3----------|--2----5/-7-------------|--------------5----------|--3--2--0----1----3--2--|--0----------8--7--5----|--0--0--0--0--3----0--0--|--3--2--0---------3--2--|------------------------|--0--0--0--0-------0--0--|
------------------------|------------------------|-----------------------|------------------------|------------------------|-----------------------|------------------------|------------------------|-----------------------|--------7----------8----|-------------5----------|-------3----------2----|--0--0--5----0--0--6----|--3--2--0----3----3--2--|--0----1----3--2--0----|--0--0-------0--0-------|--3--2--0---------3--2--|--0---------3--2-------|
-------------------------|------------------------|------------------------|-------------------------|------------------------|------------------------|-------------------------|------------------------|------------------------|--------------8----------|--------5----------7----|-------------3----------|--0--0--0--0--6----0--0--|--0--0--3----0--0--5----|--3--2--0----1----3--2--|--0--0--0--0-------0--0--|--0--0-------0--0-------|--3--2--0---------3--2--|
------------------------|--------------------------|--------------------------|------------------------|--------------------------|--------------------------|------------------------|--------------------------|--------------------------|--2----5/-7-------------|--------------------------|--------------------------|--0----------8--7--5----|--6--6--6--6--6--6--6--6--|--6--6--6--6--------------|------------------------|--------------------------|--------------4--4--4--4--|
-----------------------|-----------------------|--------------------------|-----------------------|-----------------------|--------------------------|-----------------------|-----------------------|--------------------------|-----------------------|-----------------------|--------------------------|--------------3--------|--------------8--------|--6--6--6--6--6--6--6--6--|--5--5--5--5--3--------|--5--5--5--5--8--------|--------------------------|
--------------------------|-----------------------|-----------------------|--------------------------|-----------------------|-----------------------|--------------------------|-----------------------|-----------------------|--------------------------|-----------------------|-----------------------|--6--6--6--6--------------|--------------3--------|--------------8--------|--------------4--4--4--4--|--5--5--5--5--3--------|--5--5--5--5--8--------|
--------------------------|--------------------------|-----------------------|--------------------------|--------------------------|-----------------------|--------------------------|--------------------------|-----------------------|--------------------------|--------------------------|--------------6--------|--2--2--2--2--2--2--2--2--|--2--2--2--2--5-----------|--------------4--------|--------------------------|-----------------0--0--0--|--1--1--1--1-----------|
-----------------------|--------------------------|--------------------------|-----------------------|--------------------------|--------------------------|-----------------------|--------------------------|--------------------------|-----------------------|--------------------------|--------------------------|--------------4--------|--2--2--2--2--2--2--2--2--|--2--2--2--2--5-----------|--1--1--1--1--4--------|--------------------------|-----------------0--0--0--|
-----------------------|-----------------------|--------------------------|-----------------------|-----------------------|--------------------------|-----------------------|-----------------------|--------------------7--7--|--------------6--------|-----------------------|--7-----------5--7--------|--------------4--------|--------------4--------|--5-----------3--5--------|--1--1--1--1-----------|--1--1--1--1--4--------|-----0--0--0--------------|
---------------------------|--------------------------|---------------------------|--------------------------|--12--7--7--7--------------|--------------------------|---------------------------|--7-----------5--7--------|---------------------------|--5-----------3--5--------|---------------5--6--3--6--|-----0--0--0--------0--0--|
--------------------------|--------------------------|----------------------|--------------------------|--------------------------|----------------------|--------------------------|--------------------------|----------------------|--------------------------|--------------------------|----------------------|--------------5--6--3--6--|--5-----------3--5--------|--6----3----6----5----|--0--0--0--0--5--6--3--6--|-----0--0--0--------0--0--|--6----3----6----5----|
--------------------------|--------------------------|--------------------------|--------------------------|--------------------------|--------------------------|--------------------------|--------------------------|--5-----------3--5--------|--------------5--6--3--6--|-----0--0--0--------0--0--|--0--0--0--0--5--6--3--6--|
--------------------------|------------------------------------|--------------------------|------------------------------------|--------------------------|------------------------------------|--------------------------|--------------5----------------5----|--5-----------3--5--------|--------------3----------------3----|-----0--0--0--------0--0--|--3--3--3--3-------3--3--3--3-------|
--------------------------|--------------------------|--------------------------|--------------------------|--------------------------|--------------------------|--7-----------5--7--------|--------------------------|--5-----------3--5--------|--------------5--6--3--6--|-----0--0--0--------0--0--|--0--0--0--0--5--6--3--6--|
--------------------------|----------------------|--------------------------|--------------------------|----------------------|--------------------------|--------------------------|----------------------|--------------------------|--------------------------|----------------------|--------------------------|--5-----------3--5--------|--6----3----6----5----|--5-----------3--5--------|-----0--0--0--------0--0--|--6----3----6----5----|-----0--0--0--------0--0--|
--------------------------|--------------------------|--------------------------|--------------------------|--------------------------|--------------------------|--------------------------|--------------------------|--------------5--6--3--6--|--5-----------3--5--------|--0--0--0--0--5--6--3--6--|-----0--0--0--------0--0--|
------------------------------------|-------------------------|------------------------------------|-------------------------|------------------------------------|-------------------------|--------------5----------------5----|-------------------------|--------------3----------------3----|--2--2--2--2--0----5--5--|--3--3--3--3-------3--3--3--3-------|--2--2--2--2--0----5--5--|
-------------------------|------------------------|------------------------|-------------------------|------------------------|------------------------|-------------------------|------------------------|------------------------|-------------------------|------------------------|------------------------|--5--5--0----2--2--2--2--|--0----5--5--5--5--0----|--2--2--3/-2--0--2------|--5--5--0----2--2--2--2--|--0----5--5--5--5--0----|--2--2--3/-2--0--2------|
-------------------------|-------------------------|------------------------|-------------------------|-------------------------|------------------------|-------------------------|-------------------------|------------------------|-------------------------|-------------------------|------------------------|--2--2--2--2--0----3--3--|--3--3--0----2--2--2--2--|--0----3--3--3--3--0----|--2--2--2--2--0----3--3--|--3--3--0----2--2--2--2--|--0----3--3--3--3--0----|
-----------------------|-------------------------|-------------------------|-----------------------|-------------------------|-------------------------|-----------------------|-------------------------|-------------------------|--4----4--4--5--5------|-------------------------|-------------------------|--2----2--2--3--3------|--2--2--2--2--0----5--5--|--5--5--0----2--2--2--2--|-----------------------|--2--2--2--2--0----5--5--|--5--5--0----2--2--2--2--|
------------------------|------------------------|-------------------------|------------------------|------------------------|-------------------------|------------------------|------------------------|-------------------------|------------------------|------------------------|-------------------------|--0----5--5--5--5--0----|--2--2--3/-2--0--2------|--2--2--2--2--0----3--3--|--0----5--5--5--5--0----|--2--2--3/-2--0--2------|--2--2--2--2--0----3--3--|
-------------------------|------------------------|-----------------------|-------------------------|------------------------|-----------------------|-------------------------|------------------------|-----------------------|-------------------------|------------------------|--4----4--4--5--5------|--3--3--0----2--2--2--2--|--0----3--3--3--3--0----|--2----2--2--3--3------|--3--3--0----2--2--2--2--|--0----3--3--3--3--0----|-----------------------|
-------------------------|-------------------------|------------------------|-------------------------|-------------------------|------------------------|-------------------------|-------------------------|------------------------|-------------------------|-------------------------|------------------------|--2--2--2--2--0----5--5--|--5--5--0----2--2--2--2--|--0----5--5--5--5--0----|--2--2--2--2--0----5--5--|--5--5--0----2--2--2--2--|--0----5--5--5--5--0----|
------------------------|-------------------------|-------------------------|------------------------|-------------------------|-------------------------|------------------------|-------------------------|-------------------------|------------------------|-------------------------|-------------------------|--2--2--3/-2--0--2------|--2--2--2--2--0----3--3--|--3--3--0----2--2--2--2--|--2--2--3/-2--0--2------|--2--2--2--2--0----3--3--|--3--3--0----2--2--2--2--|
------------------------|-------------------------|-------------------------|------------------------|-------------------------|-------------------------|------------------------|-------------------------|-------------------------|-------------------7----|--4----7/-9--------------|--------------5----------|--0----2--2--2--2--5----|--2----------10--9--7----|--0--0--0--0--3----0--0--|--0----2--2--2--2-------|-------------------------|--0--0--0--0-------0--0--|
------------------------|------------------------|-----------------------|------------------------|------------------------|-----------------------|------------------------|------------------------|-----------------------|--------7----------8----|-------------5----------|-------3----------2----|--0--0--5----0--0--6----|--3--2--0----3----3--2--|--0----1----3--2--0----|--0--0-------0--0-------|--3--2--0---------3--2--|--0---------3--2-------|
-------------------------|------------------------|------------------------|-------------------------|------------------------|------------------------|-------------------------|------------------------|------------------------|--------------8----------|--------5----------7----|-------------3----------|--0--0--0--0--6----0--0--|--0--0--3----0--0--5----|--3--2--0----1----3--2--|--0--0--0--0-------0--0--|--0--0-------0--0-------|--3--2--0---------3--2--|
------------------------|-------------------------|------------------------|------------------------|-------------------------|------------------------|------------------------|-------------------------|------------------------|--2----5/-7-------------|--------------5----------|--------7----------8----|--0----------8--7--5----|--0--0--0--0--3----0--0--|--0--0--5----0--0--6----|------------------------|--0--0--0--0-------0--0--|--0--0-------0--0-------|
------------------------|-----------------------|-------------------------|------------------------|-----------------------|-------------------------|------------------------|-----------------------|-------------------------|-------------5----------|-------3----------2----|--------------8----------|--3--2--0----3----3--2--|--0----1----3--2--0----|--0--0--0--0--6----0--0--|--3--2--0---------3--2--|--0---------3--2-------|--0--0--0--0-------0--0--|
------------------------|------------------------|------------------------|------------------------|------------------------|------------------------|------------------------|------------------------|------------------------|--------5----------7----|-------------3----------|--2----5/-7-------------|--0--0--3----0--0--5----|--3--2--0----1----3--2--|--0----------8--7--5----|--0--0-------0--0-------|--3--2--0---------3--2--|------------------------|
---------------------------|--------------------------|---------------------------|--------------------------|---------------------------|--------------------------|---------------------------|--------------------3--6--|--5--------8--7--------10--|--8--------------5--------|-----0--0--------0--0------|-----0--0--5--6-----------|
---------------------------|--------------------------|---------------------------|--------------------------|---------------------------|--------------------------|---------------------------|--------------------------|--5--------8--7--------10--|--8--------3--2--0--2--3--|-----0--0--------0--0------|-----0--0--3--2--0--2--3--|
--------------------------|--------------------------|--------------------------|--------------------------|--------------------------|--------------------------|-----------3--2--------5--|--3-----------------3--6--|--5-----------------------|-----------------5--------|-----0--0--------1--1-----|-----0--0--5--6-----------|
---------------------------|--------------------------|---------------------------|--------------------------|---------------------------|--------------------------|---------------------------|--------------------------|--5--------8--7--0--0--10--|--8--5--5--8--7--3--3--7--|-----0--0------------------|--------------------------|
---------------------------|--------------------------|---------------------------|--------
Please rate this tab:
x1.0