Children Of Bodom - Deadnight Warrior tab

Gtr I (Db Gb B E Ab Db) - Alexi
Gtr II (Db Gb B E Ab Db) - Alexander

E-mail any comments/fixes/questions to DeThRoNeD ChRiSt@aol.com

Key:
S - Shift Slide

Gtr I|-----------|-----------------|---------------|------------------||--------5--|---5-(5)-4-4--5--|------------5--|---5-(5)-4-4--5---||-----2--4--|---4-(4)-3-3--4--|---------2--4--|---4-(4)-3-3--4---||-----0-----|---5-(5)-4-4--5--|---------0-----|---5-(5)-4-4--5---||-----5--7--|-7-7-(7)-6-6--7--|-------0-5--7--|-7-7-(7)-6-6--7---||-----------|-----------------|-0-2-3---------|------------------|
|
| Gtr II|-----------|-----------------|---------------|------------------||--------5--|-----------------|------------5--|------------------||-----2--4--|-----------------|---------2--4--|------------------||-----0-----|-----------------|---------0-----|------------------||-----5--7--|-----------------|---------5--7--|------------------||-----------|-----------------|---------------|------------------|
|-3-----------|-----------------|---------------|-----------------||---5------5--|---5-(5)-4-4--5--|------------5--|---5-(5)-4-4--5--||-----3----4--|---4-(4)-3-3--4--|---------2--4--|---4-(4)-3-3--4--||-------------|---5-(5)-4-4--5--|---------0-----|---5-(5)-4-4--5--||----------7--|-7-7-(7)-6-6--7--|-------0-5--7--|-7-7-(7)-6-6--7--||-------------|-----------------|-0-2-3---------|-----------------|
|
|-------------|-----------------|---------------|-----------------||-4--------5--|-----------------|------------5--|-----------------||---4------4--|-----------------|---------2--4--|-----------------||-------------|-----------------|---------0-----|-----------------||-----8----7--|-----------------|---------5--7--|-----------------||-------------|-----------------|---------------|-----------------|
|-3-----------|-----------------|---------------|-----------------||---5------5--|---5-(5)-4-4--5--|------------5--|---5-(5)-4-4--5--||-----3----4--|---4-(4)-3-3--4--|---------2--4--|---4-(4)-3-3--4--||-------------|---5-(5)-4-4--5--|---------0-----|---5-(5)-4-4--5--||----------7--|-7-7-(7)-6-6--7--|-------0-5--7--|-7-7-(7)-6-6--7--||-------------|-----------------|-0-2-3---------|-----------------|
|
|-------------|-----------------|---------------|-----------------||-4--------5--|---5-(5)-4-4--5--|------------5--|---5-(5)-4-4--5--||---4------4--|---4-(4)-3-3--4--|---------2--4--|---4-(4)-3-3--4--||-------------|---5-(5)-4-4--5--|---------0-----|---5-(5)-4-4--5--||-----8----7--|-7-7-(7)-6-6--7--|-------0-5--7--|-7-7-(7)-6-6--7--||-------------|-----------------|-0-2-3---------|-----------------|
|-3-----------|-----------------|---------------|-----------------||---5------5--|---5-(5)-4-4--5--|------------5--|---5-(5)-4-4--5--||-----3----4--|---4-(4)-3-3--4--|---------2--4--|---4-(4)-3-3--4--||-------------|---5-(5)-4-4--5--|---------0-----|---5-(5)-4-4--5--||----------7--|-7-7-(7)-6-6--7--|-------0-5--7--|-7-7-(7)-6-6--7--||-------------|-----------------|-0-2-3---------|-----------------|
|
|-------------|-----------------|---------------|-----------------||-4--------5--|---5-(5)-4-4--5--|------------5--|---5-(5)-4-4--5--||---4------4--|---4-(4)-3-3--4--|---------2--4--|---4-(4)-3-3--4--||-------------|---5-(5)-4-4--5--|---------0-----|---5-(5)-4-4--5--||-----8----7--|-7-7-(7)-6-6--7--|-------0-5--7--|-7-7-(7)-6-6--7--||-------------|-----------------|-0-2-3---------|-----------------|
|---18---------------------|-------------3-------||-5------------------------|-----------5---5-3-5-||--------------------------|---------------------||--------------------------|---------------------||--------19-(19)--(19)-----|--7--10-14-----------||--------------------------|---------------------|
|
|--------------------------|---------------------||-4------------------------|---------------------||------4-------------------|---------------------||--------------------------|---------------------||-------------8---------2--|-(2)-----------------||-----------------------0--|-(0)-----------------|
|-3-7-------7---3--7--|-12-------15-------19----||-----8---8---5-6-10--|----12-------17-------20-||-------9-------------|-------12-------16-------||---------------4--8--|-------------------------||---------------------|-------------------------||---------------------|-------------------------|
|
|---------------------|-------------------------||---------------------|-------------------------||---------------------|-------------------------||---------------------|-------------------------||---------------------|-------------------------||---------------------|-------------------------|
|-24----------7-------|-------3-2-3---3-|-----3---3---------------||----24---------8-----|-7-5-3-------5---|--3----1----------3-5--7-||-------24-21-----9-7-|-----------------|-----------2-4--5--------||---------------------|-----------------|-------------------------||---------------------|-----------------|-------------------------||---------------------|-----------------|-------------------------|
|
|---------------------|-----------------|-------------------------||---------------------|-----------------|-------------------------||---------------------|-----------------|-------------------------||---------------------|-----------------|-------------------------||---------------------|-5---------------|-(5)---------------------||---------------------|-3---------------|-(3)---------------------|
|-----------------------------8--10-|-12-14--15-17-19--20-22-20--19-17-15--14-||-8-7--5-7-8--10-12-13--12-10-------|-----------------------------------------||-----------------------------------|-----------------------------------------||-----------------------------------|-----------------------------------------||-----------------------------------|-----------------------------------------||-----------------------------------|-----------------------------------------|
|-12---------------------|------------------|------------------------||------------------------|------------------|------------------------||------------------------|------------------|------------------------||------------------------|------------------|------------------------||------------------------|------------------|------------------------||------------------------|------------------|------------------------|
|
| Gtr II|------------------------|------------------|------------------------||------------------------|------------------|------------------------||--4----------4----------|-4-------------2--|-4----------4-----------||------------------------|---------------0--|------------------------||--7----------7----------|-7----------5--5--|-7----------7-----------||-----0-0-0-0----0-0-0-0-|----0-0-0-0-3-----|----0-0-0-0----0-0-0-0--|
6/4 Gtr II Gtrs I, II|------------|-----------------------------------||-------5----|----------------------5---------3--||----2--4----|----------------------4---------2--||----0-------|----------------------5---------4--||-5--5--7----|----------------------7---------5--||-3----------|-0-0--0-0-0--0-0-0--0----0-0--0----|
|-----------------------------------||----------------------5---------1--||----------------------4---------0--||----------------------5---------1--||----------------------7---------3--||-0-0--0-0-0--0-0-0--0----0-0--0----|
4/4|-----------------------------------|--------------------------||----------------------5---------3--|----------------------5---||----------------------4---------2--|----------------------4---||----------------------5---------4--|----------------------5---||----------------------7---------5--|----------------------7---||-0-0--0-0-0--0-0-0--0----0-0--0----|-0-0--0-0-0--0-0-0--0-----|
|---------------|-------------------------||--------1------|----------------------5--||--------0------|----------------------4--||--------1------|----------------------5--||--------3------|----------------------7--||-0-0--0--------|-0-0--0-0-0--0-0-0--0----|
|-------------------------|-------------------------||----------------------3--|----------------------5--||----------------------2--|----------------------4--||----------------------4--|----------------------5--||----------------------5--|----------------------7--||-0-0--0-0-0--0-0-0--0----|-0-0--0-0-0--0-0-0--0----|
|----------------------|--------------------------||--------1-------------|----------------------5---||--------0-------------|----------------------4---||--------1-------------|----------------------5---||--------3---------12--|----------------------7---||-0-0--0----0-0--0-12--|-0-0--0-0-0--0-0-0--0-----|
|-------------------------|-------------------------||----------------------3--|----------------------5--||----------------------2--|----------------------4--||----------------------4--|----------------------5--||----------------------5--|----------------------7--||-0-0--0-0-0--0-0-0--0----|-0-0--0-0-0--0-0-0--0----|
|----------------------|-----------------------------||--------1-------------|-----------------------------||--------0-------------|-----------------------------||--------1-------------|-----------------------------||--------3---------12--|-1-1--1-1-1--1-1-1--1-1-1--1-||-0-0--0----0-0--0-12--|-----------------------------|
|-----------------------------|-----------------------------||-----------------------------|-----------------------------||-----------------------------|-----------------------------||-----------------------------|-----------------------------||-1-1--1-1-1--1-1-1--1-1-1--1S|=7-7--7-7-7--7-7-7--7-7-7--7-||-----------------------------|-----------------------------|
|-----------------------------|------------------------------||-----------------------------|------------------------------||-----------------------------|------------------------------||-----------------------------|------------------------------||-7-7--7-7-7--7-7-7--7-7-7--7S|=8-8--8-8-8--8-8-8--8-8-8--8S=||-----------------------------|------------------------------|
|-----------------------------------------||-----------------------------------------||-----------------------------------------||-----------------------------------------||-10-10--10-10-10--10-10-10--10-10-10--10S||-----------------------------------------|
|------------------------------------------||------------------------------------------||------------------------------------------||------------------------------------------||-12-12--12-12-12--12-12-12--12S14-14--14S=||------------------------------------------|
|-----------------------------------------||-----------------------------------------||-----------------------------------------||-----------------------------------------||-15-15--15-15-15--15S14-14--14-14-14--14-||-----------------------------------------|
|-----------------------------------------||-----------------------------------------||-----------------------------------------||-----------------------------------------||-----------15--------14--------12--------||-13-13--13----13--13----13--13----13--13-|
|-----------------------------------------|-----------|-----------||-----------------------------------------|-----------|-----------||-----------------------------------------|-----------|-----------||-----------------------------------------|-----------|-----------||-----------17--------15--------14--------|-----------|--------2--||-15-15--15----15--15----15--15----15--15-|-17--------|--------0--|
|----------|----------|----------|----------||----------|----------|----------|----------||----------|----------|----------|----------||----------|----------|----------|----------||-2--------|--------2-|-2--------|--------2-||-0--------|--------0-|-0--------|--------0-|
Gtr I|----------|-----------|-----------------|---------------------||----------|-----------|-----------------|---------------------||----------|-----------|-----------------|---------------------||----------|-----------|-----------------|---------------------||-2--------|-----------|-7-7-7-7-7-7-7-7-|-7-7-7-7-10-10-10-10-||-0--------|-----------|-5-5-5-5-5-5-5-5-|-8-8-8-8--7--7--7--7-|
|
| Gtr II|----------|-----------|-----------------|---------------------||----------|-----------|-----------------|---------------------||----------|-----------|-----------------|---------------------||----------|-----------|-----------------|---------------------||-2--------|-----7-----|-7-7-7-7-7-7-7-7-|-7-7-7-7-10-10-10-10-||-0--------|-----0--6--|-5-5-5-5-5-5-5-5-|-8-8-8-8--7--7--7--7-|
Gtrs I, II|-----------------|---------------------||-----------------|---------------------||-----------------|---------------------||-----------------|---------------------||-7-7-7-7-7-7-7-7-|-7-7-7-7-10-10-10-10-||-5-5-5-5-5-5-5-5-|-8-8-8-8--7--7--7--7-|
|-----------------|---------------------||-----------------|---------------------||-----------------|---------------------||-----------------|---------------------||-7-7-7-7-7-7-7-7-|-7-7-7-7-10-10-10-10-||-5-5-5-5-5-5-5-5-|-8-8-8-8--7--7--7--7-|
|-----------------|---------------------|-----------------|-----------------||-----------------|---------------------|-----------------|-----1-----------||-----------------|---------------------|-----------------|-----0-------2---||-----------------|---------------------|-----------------|-------------0---||-7-7-7-7-7-7-7-7-|-7-7-7-7-10-10-10-10-|-2---2-----2---2-|-3-3-3-3-5-5-5-5-||-5-5-5-5-5-5-5-5-|-8-8-8-8--7--7--7--7-|-0-0-0-0-0-0-0-0-|-----------------|
|-----------------|-----------------|-----------------|-----------------||-----------------|-----1-----------|-----------------|-----1-----------||-----------------|-----0-------2---|-----------------|-----0-------2---||-----------------|-------------0---|-----------------|-------------0---||-2---2-----2---2-|-3-3-3-3-5-5-5-5-|-2---2-----2---2-|-3-3-3-3-5-5-5-5-||-0-0-0-0-0-0-0-0-|-----------------|-0-0-0-0-0-0-0-0-|-----------------|
Gtr II|-----------------|-----------|-------------------------------||-----------------|-1---------|-5-----------------------------||-----------------|-0----2----|-4-----------------------------||-----------------|------0----|-5-----------------------------||-2---2-----2---2-|-3----5----|-7-7-7-7-7-7-7-7-7-7-7-7-7-7-7-||-0-0-0-0-0-0-0-0-|-----------|-------------------------------|
Gtr I|---------------------------|---------------------------------||-----------------4-4-(4)-4-|---------------------------------||-----------------3-3-(3)-3-|---------------------------------||-----------------4-4-(4)-4-|---------------------------------||-----------------6-6-(6)-6-|---------------------------------||---------------------------|---------------------------------|
|
| Gtr II|---------------------------|---------------------------------||-----------------4-4-(4)-4-|---------------------------------||-----------------3-3-(3)-3-|---------------------------------||-----------------4-4-(4)-4-|---------------------------------||-7-7-7-7-7-7-7-7-6-6-(6)-6-|-7-7-7-7-7-7-7-7-7-7-7-7-7-7-7-7-||---------------------------|---------------------------------|
6/4|------------------7---|-5-7---5-3-2-3-----------------||-------5--5-7-8-------|---------------5-(5)-3-5---5-7-||----2--4--------------|-------------------------------||----0-----------------|-------------------------------||-5--5--7--------------|-------------------------------||-3--------------------|-------------------------------|
|
|----------------------|-------------------------------||-------5--------------|-------------------------------||----2--4--------------|-2---2---2-2-------------------||----0-----------------|-0---0---0-0-------------------||-5--5--7--2-2-5-5-5-5-|-5---5---5-5-2-2--2--2-2-2-2-2-||-3--------0-0-3-3-3-3-|-------------0-0--0--0-0-0-0-0-|
|-------------------------|---------------7---5-7---5-3-2--||-8---8---7-5-3---5-------|-(5)---5-7-8--------------------||-------------------------|--------------------------------||-------------------------|--------------------------------||-------------------------|--------------------------------||-------------------------|--------------------------------|
|
|-------------------------|--------------------------------||-------------------------|--------------------------------||---------2-2-2-2---------|-------------------2---2---2-2--||---------0-0-0-0---------|-------------------0---0---0-0--||-5-5-5-5-5-5-5-5-2-2-2-2-|--2--2-2-2-5-5-5-5-5---5---5-5--||-3-3-3-3---------0-0-0-0-|--0--0-0-0-3-3-3-3--------------|
|-3-----------------------|---------------------------||---5---3-5---5-7-8---8---|-7-5-3---5---(5)---5-5-5-7-||-------------------------|---------------------------||-------------------------|---------------------------||-------------------------|---------------------------||-------------------------|---------------------------|
|
|-------------------------|---------------------------||-------------------------|---------------------------||-------------------------|-2-2-2-2-------------------||-------------------------|-0-0-0-0-------------------||-2-2-2-2-2-2-2-2-5-5-5-5-|-5-5-5-5-2-2--2--2-2-2-2-2-||-0-0-0-0-0-0-0-0-3-3-3-3-|---------0-0--0--0-0-0-0-0-|
|-----7---5-7---5-3-2-3-------|--------------------------||-8---------------------5---3-|-5---5-7-8---8---7-5-3----||-----------------------------|--------------------------||-----------------------------|--------------------------||-----------------------------|--------------------------||-----------------------------|--------------------------|
|
|-----------------------------|--------------------------||-----------------------------|--------------------------||---------2---2---2-2---------|-----------------2-2-2-2--||---------0---0---0-0---------|-----------------0-0-0-0--||-5-5-5-5-5---5---5-5-2-2-2-2-|-2-2-2-2-5-5-5-5-5-5-5-5--||-3-3-3-3-------------0-0-0-0-|-0-0-0-0-3-3-3-3----------|
|---------------------7---|-5-7---5-3-2-3------------------||-5-----------5-7-8-------|---------------5-(5)-3-5---5-7--||-------------------------|--------------------------------||-------------------------|--------------------------------||-------------------------|--------------------------------||-------------------------|--------------------------------|
|
|-------------------------|--------------------------------||-------------------------|--------------------------------||-------------------------|-2---2---2-2--------------------||-------------------------|-0---0---0-0--------------------||-2-2-2-2-2-2-2-2-5-5-5-5-|-5---5---5-5-2-2--2--2-2-2-2-2--||-0-0-0-0-0-0-0-0-3-3-3-3-|-------------0-0--0--0-0-0-0-0--|
4/4|-----------------19----|-------------------------||-8---8---7-5-3---------|----------------------5--||-----------------------|----------------------4--||-----------------------|----------------------5--||-----------------------|----------------------7--||-----------------------|-0-0--0-0-0--0-0-0--0----|
|
|-----------------------|-------------------------||-----------------------|----------------------5--||---------2-2-2-2-------|----------------------4--||---------0-0-0-0-------|----------------------5--||-5-5-5-5-5-5-5-5--2----|----------------------7--||-3-3-3-3----------0----|-0-0--0-0-0--0-0-0--0----|
Gtrs I, II|-------------------------|-------------------------||----------------------3--|----------------------5--||----------------------2--|----------------------4--||----------------------4--|----------------------5--||----------------------5--|----------------------7--||-0-0--0-0-0--0-0-0--0----|-0-0--0-0-0--0-0-0--0----|
|----------------------|--------------------------||--------1-------------|----------------------5---||--------0-------------|----------------------4---||--------1-------------|----------------------5---||--------3---------12--|----------------------7---||-0-0--0----0-0--0-12--|-0-0--0-0-0--0-0-0--0-----|
|-------------------------|-------------------------||----------------------3--|----------------------5--||----------------------2--|----------------------4--||----------------------4--|----------------------5--||----------------------5--|----------------------7--||-0-0--0-0-0--0-0-0--0----|-0-0--0-0-0--0-0-0--0----|
Gtr I|----------------------|----------3-7--12-15-19--------7----||--------1-------------|--------5----------------20-------8-||--------0-------------|----------------------------21------||--------1-------------|------------------------------------||--------3---------12--|-10-14------------------------------||-0-0--0----0-0--0-12--|------------------------------------|
|
| Gtr II|----------------------|------------------------------------||--------1-------------|-----------------------------5------||--------0-------------|-----------------------------4------||--------1-------------|-----------------------------5------||--------3---------12--|-----------------------------7------||-0-0--0----0-0--0-12--|--0--0--0-0-0---0--0--0---0---------|
|-10-12--10-8-10--8-7---------|--------7-5--3-12-10--8-15-14--12--||--------------------------8--|-8-7--5----------------------------||-----------------------------|-----------------------------------||-----------------------------|-----------------------------------||-----------------------------|-----------------------------------||-----------------------------|-----------------------------------|
|
|-----------------------------|-----------------------------------||--------------------------3--|-------------------------5---------||--------------------------2--|-------------------------4---------||--------------------------4--|-------------------------5---------||--------------------------5--|-------------------------7---------||--0--0---0-0--0--0-0-0--0----|-0-0--0-0-0--0--0--0--0------------|
|-19------19-20-19---22---(22)----|-24---------------18-19--------7-12--15-||------------------------------24-|----24--------20--------20--------------||---------------------------------|--------24-21---------------21----------||---------------------------------|----------------------------------------||---------------------------------|----------------------------------------||---------------------------------|----------------------------------------|
|
|---------------------------------|----------------------------------------||----------1----------------------|-------------------------------5--------||----------0----------------------|-------------------------------4--------||----------1----------------------|-------------------------------5--------||----------3---------------12-----|-------------------------------7--------||--0-0--0--------0-0----0--12-----|--0--0---0--0--0---0--0--0---0----------|
|-20-------------------------8-11-14--17-|-19--------7-----------3-7-12--15-||----22------------------10--------------|----20-------8------5-------------||--------23-20-17--14-11-----------------|--------21------9-4---------------||----------------------------------------|----------------------------------||----------------------------------------|----------------------------------||----------------------------------------|----------------------------------|
|
|----------------------------------------|----------------------------------||-------------------------------3--------|-------------------------5--------||-------------------------------2--------|-------------------------4--------||-------------------------------4--------|-------------------------5--------||-------------------------------5--------|-------------------------7--------||--0--0---0--0--0---0--0--0--0-----------|--0--0---0-0-0--0-0-0--0----------|
|-17-----------------------5--8-11--14-|-13---------------------------||----19-----------------7--------------|------------------------------||--------20-17-14--11-8----------------|------------------------------||--------------------------------------|------------------------------||--------------------------------------|------------------------------||--------------------------------------|------------------------------|
|
|--------------------------------------|------------------------------||------------1-------------------------|------------------------------||------------0-------------------------|------------------------------||------------1-------------------------|------------------------------||------------3---------------12--------|--1-1--1-1-1--1-1-1--1-1-1--1-||--0--0---0-----------0-0--0-12--------|------------------------------|
|-(13)------13------16--------------|------------------------------||---------------------------17------|-17---------------------------||-----------------------------------|------------------------------||-----------------------------------|------------------------------||-----------------------------------|------------------------------||-----------------------------------|------------------------------|
|
|-----------------------------------|------------------------------||-----------------------------------|------------------------------||-----------------------------------|------------------------------||-----------------------------------|------------------------------||---1--1--1--1-1--1--1-1--1--1-1--1S|==7-7--7-7-7--7-7-7--7-7-7--7-||-----------------------------------|------------------------------|
|-17---------------------------|------------------------------||------------------------------|------------------------------||------------------------------|------------------------------||------------------------------|------------------------------||------------------------------|-8--------------------8-------||------------------------------|-6--------------------6-------|
|
|------------------------------|------------------------------||------------------------------|------------------------------||------------------------------|------------------------------||------------------------------|------------------------------||--7-7--7-7-7--7-7-7--7-7-7--7S|=8-8--8-8-8--8-8-8--8-8-8--8S=||------------------------------|------------------------------|
|-----------------------------------------||--1-----------------------------1--------||--0-----------------------------0--------||-----------------------------------------||--3-----------------------------3--------||-----------------------------------------|
|
|-----------------------------------------||-----------------------------------------||-----------------------------------------||-----------------------------------------||-10-10--10-10-10--10-10-10--10-10-10--10S||-----------------------------------------|
|------------------------------------------||--------------------------------5---------||--2-----------------------------4---------||--0---------------------------------------||--5-----------------------------7---------||------------------------------------------|
|
|------------------------------------------||------------------------------------------||------------------------------------------||------------------------------------------||-12-12--12-12-12--12-12-12--12S14-14--14S=||------------------------------------------|
|-----------------------------------------||--6---------6---------5---------5--------||--5---------5---------4---------4--------||-----------------------------------------||--8---------8---------7---------7--------||-----------------------------------------|
|
|-----------------------------------------||-----------------------------------------||-----------------------------------------||-----------------------------------------||-15-15--15-15-15--15S14-14--14-14-14--14-||-----------------------------------------|
|-----------------------------------------||--6--------------------------------------||--5---------5---------4------------------||-----------------------------------------||--8--8---8-----8---8-----8---8-12--------||----------------------------------13--13-|
|
|-----------------------------------------||-----------------------------------------||-----------------------------------------||-----------------------------------------||-----------15--------14--------12--------||-13-13--13----13--13----13--13----13--13-|
|--3--------------------------------------|----------|-----------||--3---------3---------1---------0--------|----------|-----------||--0--0---0-----0---0-----0---0-----0---0-|----------|-----------||-----------------------------------------|----------|-----------||-----------------------------------------|-7--------|-3----5----||-----------------------------------------|-5--------|-1----3----|
|
|-----------------------------------------|----------|-----------||-----------------------------------------|----------|-----------||-----------------------------------------|----------|-----------||-----------------------------------------|----------|-----------||-----------17--------15--------14--------|-7--------|-3----5----||-15-15--15----15--15----15--15----15--15-|-5--------|-1----3----|
Gtrs I, II|----------|-----------|----------|-----------||----------|-----------|----------|-----------||----------|-----------|----------|-----------||----------|-----------|----------|-----------||-7--------|-3----5----|-7--------|-3----5----||-5--------|-1----3----|-5--------|-1----3----|
|----------|-----------|-----------------|-----------------||----------|-----------|-----------------|-----1-----------||----------|-----------|-----------------|-----0-------2---||----------|-----------|-----------------|-------------0---||-7--------|-3----5----|-2---2-----2---2-|-3-3-3-3-5-5-5-5-||-5--------|-1----3----|-0-0-0-0-0-0-0-0-|-----------------|
|-----------------|-----------------|-----------------|-----------------||-----------------|-----1-----------|-----------------|-----1-----------||-----------------|-----0-------2---|-----------------|-----0-------2---||-----------------|-------------0---|-----------------|-------------0---||-2---2-----2---2-|-3-3-3-3-5-5-5-5-|-2---2-----2---2-|-3-3-3-3-5-5-5-5-||-0-0-0-0-0-0-0-0-|-----------------|-0-0-0-0-0-0-0-0-|-----------------|
|-----------------|-----------------|----------------------|-----------||-----------------|-----1-----------|----------------------|-4---------||-----------------|-----0-------2---|----------------------|-2----3----||-----------------|-------------0---|----------------------|-----------||-2---2-----2---2-|-3-3-3-3-5-5-5-5-|-12-------------------|-----------||-0-0-0-0-0-0-0-0-|-----------------|-11----10-9-8-(8)-7-6-|-----------|
|----------------------|-----------|----------------------|-----------||----------------------|-4---------|----------------------|-4---------||----------------------|-2----3----|----------------------|-2----3----||----------------------|-----------|----------------------|-----------||-12-------------------|-----------|-12-------------------|-----------||-11----10-9-8-(8)-7-6-|-----------|-11----10-9-8-(8)-7-6-|-----------|
|----------------------|-----------|-----------------|------------*||----------------------|-4---------|---------5-5---5-|-(5)--------*||----------------------|-2----3----|---------4-4-2-4-|-(4)--------*||----------------------|-----------|-------------0---|------------*||-12-------------------|-----------|---------7-7-5-7-|-(7)--------*||-11----10-9-8-(8)-7-6-|-----------|-0---0-----------|------------*|
Tap to rate this tab
 
# A B C D E F G H I J K L M N O P Q R S T U V W X Y Z