Children Of Bodom - Something Wild tab

Children of bodom
Something Wild Album
Tabbed by kevin Cruz (Kevin666)

WARNING: IF YOU CAN'T READ THIS PAGE
         CHECK THE TABS INDIVIDUALY

1.Deadnight Warrior          | Juha-Matti Kallinen
2.In the Shadows             | Vogi
3.Red light in my Eyes, Pt.1 | Kevin666
4.Red light in my Eyes, Pt.2 | Schuyler Tsuda
5.Lake Bodom                 | Tommy Peltola
6.The Nail                   | esp
7.Touch like Angel of Death  | Tommy Peltola

-----------------------------------------------------------------------------
1.Dead night Warrior

Tune down 1 1/2 step
ca. 210 bpm

4/4 time

(Drums)|--------------|---------------|------------------------||--------------|---------------|--------8-----7--7----8-||--------------|---------7---9-|*-------9-----8--8----9-||--------------|---------7---9-|*-------9-----8--8----9-||--------------|---------5---7-|----7-7-7-----6--6----7-||--------------|---------------|------------------------|
1.2.3.|------------------|------------------------|--------------------||------------------|--------8-----7--7----8-|----8---------------||------------7---9-|--------9-----8--8----9-|------9----------9-*||------------7---9-|--------9-----8--8----9-|--------8~-------9-*||----------0-5---7-|----7-7-7-----6--6----7-|-----------------7--||----0-2-3---------|------------------------|--------------------|
4. E5|---/18\---|-------------------------|------------------------||----------|-------------------------|------------------------||----------|-------------------------|----16----------16-9/16-||----------|----------14-17p14----14-|-17----17-14-17---------||----------|-------14----------17----|------------------------||----------|-12-15-------------------|------------------------|
|-------------------19p15-|-t24p19p15----------------||-17-------20p17----------|-----------17-------------||----16----------16-------|--------------16----------||-------17----------------|-----------------17p14----||-------------------------|-----------------------17-||-------------------------|--------------------------|
C5|----------------------------|-------------------------------||----------------------------|-------------------------------||----------------------------|-------------------------------||-------------17-16-17-14-17-|-12-17----17----------12-14-16-||-15h17p15-14----------------|-------15----12-14-15----------||----------------------------|-------------------------------|
|-------------------------------------|-------------17-19-20-19-17-------||-------------------------------------|-15-17-19-20----------------20-19-||----------------14-16-17-16-14-16-17-|----------------------------------||-17-16-14-16-17----------------------|----------------------------------||-------------------------------------|----------------------------------||-------------------------------------|----------------------------------|
|------------|-17-\-------|------------|------------|------------|------------
|
|-------------------------------|--------------------------------||-------------------------------|--------------------------------||-------------------------------|------------------------7-------||-10\9-----------10\9-----------|-10\9-----------5-------7-------||--7--------------7-------------|--7-------------5-------5-------||--------0-0-0-0--------0-0-0-0-|--------0-0-0-0-3---------------|
|-------------------------------|--------------------------------||-------------------------------|--------------------------------||-------------------------------|---------7-------9--------------||-10\9-----------10\9-----------|-5-------7-------9--------------||--7--------------7-------------|-5-------5-------7--------------||--------0-0-0-0--------0-0-0-0-|-3------------------------------|
6/4 time|------------------------------------|-------------------------------------||-------------------8-----------7----|-------------------8-----------4-----||*------------------9-----------7----|-------------------9-----------5----*||*------------------9-----------7----|-------------------9-----------5----*||-------------------7-----------5----|-------------------7-----------3-----||-0-0-0-0-0-0-0-0-0-------0-0-0------|-0-0-0-0-0-0-0-0-0-------0-0-0-------|
One empty 1/4 time bar
4/4 time Riff A|------------------------|------------------------||-------------------8----|-------------------7----||*------------------9----|-------------------7----||*------------------9----|-------------------7----||-------------------7----|-------------------5----||-0-0-0-0-0-0-0-0-0------|-0-0-0-0-0-0-0-0-0------|
|------------------------|-------------------5----||-------------------8----|-------4-----------5----||-------------------9----|-------5-----------5---*||-------------------9----|-------5-----------7---*||-------------------7----|-------3-----------7----||-0-0-0-0-0-0-0-0-0------|-0-0-0-------0-0-0------|
Riff B|-------------------------|-------------------------||-------------------------|-------------------------||-------------------------|-------------------------||-------------------------|-------------------------||-------------------------|-------------------------||-6-6-6-6-6-6-6-6-6-6-6-6-|-6-6-6-6-6-6-6-6-6-6-6-6-|
|-------------------------|-------------------------||-------------------------|-------------------------||-------------------------|-------------------------||-------------------------|-------------------------||-7-7-7-7-7-7-7-7-7-7-7-7-|-7-7-7-7-7-7-7-7-7-7-7-7-||-------------------------|-------------------------|
|-------------------------|-------------------------------------||-------------------------|-------------------------------------||-------------------------|-------------------------------------||-------------------------|-------------------------------------||-8-8-8-8-8-8-8-8-8-8-8-8-|-10-10-10-10-10-10-10-10-10-10-10-10-||-------------------------|-------------------------------------|
|-------------------------|-------------------------------||-------------------------|-------------------------------||-------------------------|-------------------------------||-7-7-7-7-7-7-7-7-7-9-9-9-|-10-10-10-10-10-10-9-9-9-9-9-9-||-------------------------|-------------------------------||-------------------------|-------------------------------|
|--------------------------|------------------------------------||--------------------------|------------------------------------||--------------------------|------------------------------------||-------10-----9-----7-----|----------12-------10-------9-------||-8-8-8----8-8---8-8---8-8-|-10-10-10----10-10----10-10---10-10-||--------------------------|------------------------------------|
|----------|-----------|------------|----|----|----|----||----------|-----------|------------|----|----|----|----||----------|---------2-|-2--------2-|--*/-/---|--*/-/---||-7\-------|---------2-|-2--------2-|--/-/*---|--/-/*---||----------|---------0-|-0--------0-|----|----|----|----||----------|-----------|------------|----|----|----|----|
play 4 times|------------------|------------------||------------------|------------------||*-----------------|-----------------*||*-2-2-2-2-2-2-2-2-|-3-3-3-3-5-5-5-5-*||--0-0-0-0-0-0-0-0-|-3-3-3-3-2-2-2-2--||------------------|------------------|
Riff C 1.2.3. 4.|------------------|----------------------| --------------------||------------------|----------------------| --------------------||*-2---2-----2---2-|-----10---------12---*| --5--------7--------||*-2---2-----2---2-|-----10---------12---*| --5--------7--------||--0-0-0-0-0-0-0-0-|-8-8-8--8-10-10-10-10-| --3--------5--------||------------------|----------------------| --------------------|
|---------------------|--------------------||--8------------------|-----------7--7--7--||--9------------------|-----------8--8--8--||--9------------------|-----------8--8--8--||--7---77777777777777-|-77777777--6--6--6--||---------------------|--------------------|
2/4|------------------|-----------||------------------|-----------||------------------|-------7---||------------------|--5----7---||-7777777777777777-|--5----5---||------------------|--3--------|
4/4 E5 G5 D5 E5|----------------------|---------------------------||------------------12--|-10-h12p10-----------------||*(9)---9-11-12--------|-----------12-11-12-9-9----||*---------------------|------------------------12-||----------------------|---------------------------||----------------------|---------------------------|
1.2.3. C5 D5 E5|--------------------|--------------------||--------------------|--------------------||-9---9-11-12---12---|-11-9-------9------*||--------------------|------12-----------*||--------------------|--------------------||--------------------|--------------------|
4. 2/4..C5 G5 D5|--------------------|------------||--------------------|------------||-9---9-11-12---12---|-11-9-------||--------------------|------12----||--------------------|------------||--------------------|------------|
4/4 E5 dive w/bar|-a7-\---------------||--------------------||--------------------||--------------------||--------------------||--------------------|
Riff A 2 times
Solo harmonies third below|-------------------15h19p15----------|--------------------------------||----------------17----------17-------|-15h17p15----15-----------------||-------------16----------------16----|----------17----17-16-----------||----------17----------------------17-|--------------------------17----||----14-19----------------------------|--------------------------------||-15----------------------------------|--------------------------------|
|-------------------------------------|-19-------19-20-19-22---------19||-------------------17-15-13-20-19-17-|--------------------------------||----------16-14-12-------------------|--------------------------------||-17-16-14----------------------------|--------------------------------||-------------------------------------|--------------------------------||-------------------------------------|--------------------------------|
|-24p19----------18-19p15----------15-|-20p17----------------------------17-||-------20----20----------17----17----|-------19----------------------19----||----------21----------------16-------|----------20p17----------17h20-------||-------------------------------------|----------------19-16h19-------------||-------------------------------------|-------------------------------------||-------------------------------------|-------------------------------------|
|-19p15----------------------------15-|-17p14----------------------------14-||-------17----------------------17----|-------16----------------------16----||----------16----------------16-------|----------17p14----------14h17-------||-------------17----------17----------|----------------16-13h16-------------||----------------19-14h19-------------|-------------------------------------||-------------------------------------|-------------------------------------|
w/Riff B raise & dive|-13----------|---------13b(14)---t16(17)-p(13)r12-|----------|-/a5\--------||-------------|------------------------------------|----------|-------------||-------------|------------------------------------|----------|-------------||-------------|------------------------------------|----------|-------------||-------------|------------------------------------|----------|-------------||-------------|------------------------------------|----------|-------------|
4 bars
4 times|--------------|-------------||--------------|-------------||*-2-----------|------------*||*-2-----------|-3-----5----*||--0-----------|-3-----5-----||--------------|-1-----3-----|
Riff C 4 times
effects w/bar|------------|------------||------------|------------||*-----------|-8---------*||*-7---------|-7---------*||--6---------|------------||------------|------------|
|-------------------||-------------------||--------7--9----\--||--------7--9----\--||--------5--7----\--||--X--X-------------|
----------------------------------------------------------------------------- 2. In the Shadows IN THE SHADOWS from: CHILDREN OF BODOM SOMETHING WILD
|--------------||--------------||--------------||--2--2--2--2--||--2--2--2--2--||--0--0--0--0--|
|---------------------------------------------------||---------------------------------------------------||--10...-9...-7...-9..-10..-------------------------||---------------------------------------------------||---------------------------8...-7...-5...-7..-8..--||---------------------------------------------------|
|-----------------||-----------------||--7--7-10--9--7--||--7--7-10--9--7--||--5--5-8---7--5--||-----------------|
|------------------------------||------------------------------||--10-9--7--9-10---------------||----------------8--7--5--7-8--||--8--7--5--7-8----------------||----------------6--5--3--5-6--| --> not sure about this
|--------------------------------||--------------------------------||--------------------------------||-------9-10--9-7----7-----------||--/7-7-----------10--10-10-8-\--||--------------------------------|
|-----------------------------||-----------------------------||--------------------------4--||-----------22----------22----||-------------2---------------||--0-000033-----0-000033------|
----------------------------------------------------------------------------- 3. Red light in my eyes pt. 1 Tune all strings down one-whole step
Guitar 1|D:-----| |------------------|--------------|------------------||A:-----| |------------------|----5------5--|------------------||F:-----| |----------------7-|-5------------|----------------7-||C:-12\-| |-7---7-10-9---9---|--------6-----|-7---7-10-9---9---||G:-10\-| |---7--------7-----|--------------|---7--------7-----||D:-----| |------------------|--------------|------------------|
|
|Guitar 2|D:-----| |------------------|--------------|------------------||A:-----| |------------------|----7------7--|------------------||F:-----| |----------------9-|-7------------|----------------9-||C:-----| |-9---9-12-11--11--|--------8-----|-9---9-12-11--11--||G:-----| |---9---------9----|--------------|-------------9----||D:-----| |------------------|--------------|------------------|
Guitar 1|D:-----------------| |A:-----------------| |F:-5-4-------------| |C:-----7-6-4-----4-| |G:-----------7-6---| |D:-----------------|
|
|Guitar 2|D:-----------------||---||A:-----------------||---||F:-7-6-------------||-2-||C:-----9-8-6-----6-||-2-||G:-----------9-8---||-0-||D:-----------------||---|
Guitar 1 (Clean Tone) w/Keyboards|D:-7-|----------------------|-----------------------||A:-9-|-9-11-11h12-11-9----9-|-9-11-11h12-11-9-12-11-||F:-6-|-----------------11---|-----------------------||C:---|----------------------|-----------------------||G:---|----------------------|-----------------------||D:---|----------------------|-----------------------|
|
|Guitar 2|-----|----------------------|-----------------------||-----|----------------------|-----------------------|on the second|-----|----------------------|-----------------------|time|-----|-6--------------------|-4---------------------||-\\--|-6--------------------|-4---------------------||-\\--|-4--------------------|-2---------------------|
Guitar 1|D:----------------------| |--------------------||A:----9-9h11-9----------| |----------9--11--12-||F:-11----------11----11-| |-11----11-----------||C:----------------11----| |----11--------------||G:----------------------| |--------------------||D:----------------------| |--------------------|
|
|Guitar 2|------------------------| |--------------------| |------------------------| |--------------------||------------------------| |-------------10ah---||---2--------------------| |-4------------------||---2--------------------| |-4------------------||---0--------------------| |-2------------------|
Guitar 1|D:---------------------------------------------------||A:---------------------------------------------------||F:-2-2-2-2-2-2-2-2-2-2-2-2-2-2-2-2-2-2-2-2-2-----5---||C:-2-2-2-2-2-2-2-2-2-2-2-2-2-2-2-2-2-2-2-2-2-----5-5-||G:-0-0-0-0-0-0-0-0-0-0-0-0-0-0-0-0-0-0-0-0-0-----3-5-||D:-------------------------------------------0-0---3-|
|
|Guitar 2|-----------------------------------------------------||-----------------------------------------------------||-----------------------------------------------------||-----------------------------------------------------||-----------------------------------------------------||-----------------------------------------------------|
Guitar 1|D:--------------------------------||A:--------------------------------||F:-2-2---2----2---2--2----2-------||C:-2-2---2----2---2--2----2--2--2-||G:-0-0---0----0---0--0----0--2--2-||D:---------------------------0--0-|
I'll write the rest later!!!! ----------------------------------------------------------------------------- 4. Red light in My eyes pt. 2 Intro: Taken from Mozart's Symphony No. 25 I believe, Keys bass and Drums play crashes over the chords during this part...
C#m B#dim C#m C#m B#dim C#m(gtr1, right channel)|----------12-15p14p12\11-12-----------12-15p14p12\11-12-||-------12--------------------------12-------------------||----12--------------------------12----------------------||-14--------------------------14-------------------------||--------------------------------------------------------||--------------------------------------------------------|
G#(7) G# G# G# G# G# |----------14-17p15p14\12-14-----------14-17p15p14\12-14-||-------16--------------------------16-------------------||----14--------------------------14----------------------||-16--------------------------16-------------------------||--------------------------------------------------------||--------------------------------------------------------|
(gtr1)|----------15-19p17p15\14-15--15p14p12\11-12--12p10p8\7--8p7--||-------17----------------------------------------------------||----16-------------------------------------------------------||-17----------------------------------------------------------||-------------------------------------------------------------||-------------------------------------------------------------|
| ||(gtr2, left channel) ||-------------------------------------------------------------||-------------20p19p17\16-17--17p15p13\12-13--13p12p10\9-10p9-||-------------------------------------------------------------||-------------------------------------------------------------||-------------------------------------------------------------||-------------------------------------------------------------|
|-------------------------------------||-10--10-8--8-7--7--------------------||-------------------9---9-8--8--------||-------------------------------------||-------------------------------------||-------------------------------------|
| ||-------------------------------------||-------------------------------------||-11--11-9--9-8--8--------------------||------------------10--10-9--9--------||-------------------------------------||-------------------------------------|
Vocals enter, guitars play quadruplets:(C#m)|-----------------------------------------------------------------||-----------------------------------------------------------------||-----------------------------------------------------------------||-----------------------------------------------------------------||-7-7-7-7-7-7-7-7-7-7-7-7-7-7-7-7-7-7-7-7-7-7-7-7-7-7-7-7-7-7-7-7-||-----------------------------------------------------------------|
| ||-----------------------------------------------------------------||-----------------------------------------------------------------||-9-9-9-9-9-9-9-9-9-9-9-9-9-9-9-9---------------------------------||---------------------------------9-9-9-9-9-9-9-9-9-9-9-9-9-9-9-9-||-----------------------------------------------------------------||-----------------------------------------------------------------|
(D#mb5) (G#7)|---------------------------------------------------------------------------------||---------------------------------------------------------------------------------||---------------------------------------------------------------------------------||---------------------------------------------------------------------------------||-9--9--9--9--9--9--9--9--9--9--9--9--9--9--9--9----------------------------------||-------------------------------------------------7-7-7-7-7-7-7-7-7-7-7-7-7-7-7-7-|
| ||---------------------------------------------------------------------------------||---------------------------------------------------------------------------------||---------------------------------------------------------------------------------||-10-10-10-10-10-10-10-10-10-10-10-10-10-10-10-10-7-7-7-7-7-7-7-7-7-7-7-7-7-7-7-7-||---------------------------------------------------------------------------------||---------------------------------------------------------------------------------|
(C#m) (E) (A##dim)|---------------------------------------------------------------------------------||---------------------------------------------------------------------------------||---------------------------------------------------------------------------------||---------------------------------------------------------8--8--8--8--8--8--8--8--||-7-7-7-7-7-7-7-7-7-7-7-7-7-7-7-7-10-10-10-10-10-10-10-10-------------------------||---------------------------------------------------------------------------------|
| ||---------------------------------------------------------------------------------||---------------------------------8--8--8--8--8--8--8--8--11-11-11-11-11-11-11-11-||-9-9-9-9-9-9-9-9-9-9-9-9-9-9-9-9-------------------------------------------------||---------------------------------------------------------------------------------||---------------------------------------------------------------------------------||---------------------------------------------------------------------------------|
(G#)|-------------------------------------------------------------------------------------------------||-------------------------------------------------------------------------------------------------||-------------------------------------------------------------------------------------------------||-9--9--9--9--9--9--9--9--9--9--9--9--9--9--9--9--9--9--9--9--9--9--9--9--9--9--9--9--9--9--9--9--||-------------------------------------------------------------------------------------------------||-------------------------------------------------------------------------------------------------|
| ||-------------------------------------------------------------------------------------------------||-12-12-12-12-12-12-12-12-12-12-12-12-12-12-12-12-12-12-12-12-12-12-12-12-12-12-12-12-12-12-12-12-||-------------------------------------------------------------------------------------------------||-------------------------------------------------------------------------------------------------||-------------------------------------------------------------------------------------------------||-------------------------------------------------------------------------------------------------|
(G#) (C#m) |-------------------------------------------------------------------------------------||-------------------------------------------------------------------------------------||-------------------------------------------------------------------------------------||-9--9--9--9--9--9--9--9--9--9--9--9--9--9--9--9--9--9--9--9--9--9--9--9--9--9--9--9--||-------------------------------------------------------------------------------------||-------------------------------------------------------------------------------------|
| ||-------------------------------------------------------------12-12-12-12-15-15-15-15-||-----------------------------10-10-10-10-8-8-8-8-12-12-12-12-------------------------||---------8-8-8-8-11-11-11-11---------------------------------------------------------||-9-9-9-9-----------------------------------------------------------------------------||-------------------------------------------------------------------------------------||-------------------------------------------------------------------------------------|
(B#dim) (C#m)|----------------------------------------------------------------------------||----------------------------------------------------------------------------||----------------------------------------------------------------------------||-9--9--9--9--9--9--9--9--9--9--9--9--9--9--9--9--9--9--9--9--9--9--9--9--9--||----------------------------------------------------------------------------||----------------------------------------------------------------------------|
| ||-14-14-14-14-------------17-17-17-17-20-20-20-20-19-19-19-19-17-17-17-17----||-------------16-16-16-16-------------------------------------------------20-||----------------------------------------------------------------------------||----------------------------------------------------------------------------||----------------------------------------------------------------------------||----------------------------------------------------------------------------|
Interlude:(with heavy palm mute and keys playing the melody)|-------------------------------------------------------------------------------------------------||-------------------------------------------------------------------------------------------------||-------------------------------------------------------------------------------------------------||-------------------------------------------------------------------------------------------------||-------------------------------------------------------------------------------------------------||-0-2-3--3--3--3p0--0--0--0-2-3--3--3--3p0--0--0--2-3-5--5--5--5p2--2--2--2-3-5--5--5--5p2--2--2--|
|-------------------------------------------------------------------------------------------------||-------------------------------------------------------------------------------------------------||-------------------------------------------------------------------------------------------------||-------------------------------------------------------------------------------------------------||-------------------------------------------------------------------------------------------------||-3-4-5--5--5--5p3--3--3--3-4-5--5--5--5p3--3--3--5-7-8--8--8--8p5--5--5--5-7-8--8--8--8p5--5--5--|
|---------------------------------------------7-----------------------||-0h7--7--7--7p0--0--0--0h8--8--8--8p0--0--0-----0-------------7------||--------------------------------------------------------5--4--5------||--------------------------------------------------------3--2-----5-7-||---------------------------------------------------------------------||---------------------------------------------------------------------|
Both guitars:Riff 1A(2x)||------------------------------------------------------------||||------------------------------------------------------------||||.--------------------------------------------------------7-.||||.---------------7--7-7-4-----------------------------7h9---.||||--2--2-2-5------5--5-5-2------7-----5h7-----9h10------------||||--0--0-0-3--------------------0-0-0-----0-0------0-0--------||
Riff 1B(2x)||--------------------------------------------------------||||--------------------------------------------------------||||.------------------------------------------------------.||||.---------------7--7-7-4---------------------------4-7-.||||--2--2-2-5------5--5-5-2------2------2------2------2-5--||||--0--0-0-3--------------------0--0-0-0--0-0-0--0-0------||
Riff 2(gtr1 with heavy palm mute)|-------------------------------------------------------------------------------------||-------------------5p3p0----------------3--------------------5p3p0-------------------||-----------------4-------2-2-2-2-2-2-4---------------------4-------2-2-2-2-2-2-------||---4-5-7-5-4---5-----------------------------4-5-7-5-4---5---------------------5--4--||-7-----------7-----------------------------7-----------7-----------------------------||-------------------------------------------------------------------------------------|
| ||(gtr2 with heavy palm mute) ||-------------------------------------------------------------------------------------||-------------------------------------------------------------------------------------||-------------------------------------------------------------------------------------||-------------------------------------------------------------------------------------||-------------------------------------------------------------------------------------||-0-0-0-0-0-0-0-0-0-0-0-0-5-5-5-5-5-5-3--2--0-0-0-0-0-0-0-0-0-0-0-0-5-5-5-5-5-5-2--5--|
|-----------3-7p3-----------------------||----------5-----5-10--10-10-10-12--15--||---------4-----------------------------||---------------------------------------||---------------------------------------||---------------------------------------|
| ||-----------7-12p7----------------------||----------8------8---------------------||---------9-----------------------------||---------------------------------------||---------------------------------------||-0---0------------ 5-----------2-------|
Riff3 (E#m) (G) (F#mb5)|-------------------------------------------------||-------------------------------------------------||-3h5h7-------------3h5h7-7h8h10------5h7h8-------||-------------------------------------------------||-------------------------------------------------||-------------------------------------------------|
| ||-------------------------------------------------||-------------------------------------------------||-------------------------------------------------||-------------------------------------------------||-------------------------------------------------||-3-3-3-3-3-3-3-3-3-3-3-3-6-6-6-6-6-6-5-5-5-5-5-5-|
(Em) (D) (D7)|-------------------------------------------------||-------------------------------------------------||-3h5h7-------------3h5h7-7h8h10------5h7h8-------||-------------------------------------------------||-------------------------------------------------||-------------------------------------------------|
| ||-------------------------------------------------||-------------------------------------------------||-------------------------------------------------||-------------------------------------3-3-3-3-3-3-||-------------------------3-3-3-3-3-3-------------||-3-3-3-3-3-3-3-3-3-3-3-3-------------------------|
(Em) (G) (F#mb5)|-------------------------------------------------||-------------------------------------------------||-3h5h7-------------3h5h7-7h8h10------5h7h8-------||-------------------------------------------------||-------------------------------------------------||-------------------------------------------------|
| ||-------------------------------------------------||-------------------------------------------------||-------------------------------------------------||-------------------------------------------------||-------------------------------------------------||-3-3-3-3-3-3-3-3-3-3-3-3-6-6-6-6-6-6-5-5-5-5-5-5-|
(Em)|--------------------------------------------------||--------------------------------------------------||-3h5h7--------------------------------------------||-------------------------8-----------10---------9-||-------------------------6-----------8----------7-||--------------------------------------------------|
| ||--------------------------------------------------||--------------------------------------------------||--------------------------------------------------||-------------------------8-----------10---------9-||-------------------------6-----------8----------7-||-3-3-3-3-3-3-3-3-3-3-3-3--------------------------|
Keyboard solo
(A) (G#m) (f#m) (E) (C#m)|----------------------------||----------------------------||----------------------------||---------------------5----2-||-3----2----0----------------||----------------3-----------|
| ||----------------------------||----------------------------||----------------------------||-2----0--------------5----2-||-----------0----2-----------||----------------------------|
|--------------------------------------------------------------------------||--------------------------------------------------------------------------||--------------------------------------------------------------------------||-------------7-----------------7------------------2----------4-----7----9-||-------------5-----------------5------------------0----------2-----5----7-||-0-0-0-0-0-0-------0-0-0-0-0-0--------0-0-0-0-0-0-------------------------|
| ||-7h8---7------------7h8---7------------7h8--7----------------7------------||----10--9-10-7h8h10----10--9-10-7h8h10----10-9-10-7h8h10-8h10-10p8p7------||--------------------------------------------------------------------9p7-9-||--------------------------------------------------------------------------||--------------------------------------------------------------------------||--------------------------------------------------------------------------|
|--------------------------------------------------------------------------||--------------------------------------------------------------------------||--------------------------------------------------------------------------||-------------7------------------7------9----7-----2----------4-----7----9-||-------------5------------------5------7----5-----0----------2-----5----7-||-0-0-0-0-0-0--------0-0-0-0-0-0-------------------------------------------|
| ||-7h8---7------------7h8---7------------7h8--7----------------7------------||----10--9-10-7h8h10----10--9-10-7h8h10----10-9-10-7h8h10-8h10-10p8p7------||--------------------------------------------------------------------9p7-9-||--------------------------------------------------------------------------||--------------------------------------------------------------------------||--------------------------------------------------------------------------|
|------------------------------------------------------------------------------||------------------------------------------------------------------------------||------------------------------------------------------------------------------||-5-5-5-5-7-9-7------5-5-5-5-7-9-7-----9------7--------------------------------||-----------------------------------------------------7--------9-------7-----5-||-----------------------------------------------------5--------7-------5-----3-|
| ||-7h8---7------------7h8---7-----------10h12--10-------------------------------||----10--9-10-7h8h10----10--9-10-7h8h10-----13--12-13-10h12h13p12p10-----------||-------------------------------------------------------------------12p11p9--9-||--------------------------------------------------------------------------12--||------------------------------------------------------------------------------||------------------------------------------------------------------------------|
|---------------------------------------------||---------------------------------------------||---------------------------------------------||-------------------------7-----------9--7--5-||-7-----------9-----------6-6-6-6-6-6-7--5--3-||-5-5-5-5-5-5-7-7-7-7-7-7---------------------|
Keys and vocals
Both Guitars:|--------------------------------------------------------------||--------------------------------------------------------------||--------------------------------------------------------------||-7--7--7--7---------------------------------------------------||-5--5--5--5--9--9-10--10--9--9-7--7--9--9-10--10--9--9-17--14-||-------------8--8-8---8---8--8-8--8--0--0-0---0---0--0-0---0--|
|------------------------------------------------------||------------------------------------------------------||------------------------------------------------------||------------------------------------------------------||-9--9-10--10--9--9-7--7---9--9--12--12--12--12-15--14-||-8--8-8---8---8--8-8--8--10--10-10--10--11--11-11--11-|
|-------------------------------------------------------------------------------||-------------------------------------------------------------------------------||--------------------7br-----------------------------------9-8----------7---||------------5---4h5--------5--9--9-7--7--9--9-7--7--10--10-9--9-----10-9--10---||-2----------3-----------------5--5-5--5--5--5-5--6--6---6--6--6----------------||-0-----------------------------------------------------------------------------|
|-----------------------------------------------------------------||-----------------------------------------------------------------||-----------------------------------------------------------------||-5-5-5-5-5-5-5-5-5-5-5-5-5-5-5-5-4-4-4-4-4-4-4-4-4-4-4-4-4-------||-3-3-3-3-3-3-3-3-3-3-3-3-3-3-3-3-2-2-2-2-2-2-2-2-2-2-2-2-2--3--5-||-----------------------------------------------------------------|
|-------------------------------------------------------------------||-------------------------------------------------------------------||-------------------------------------------------------------------||-5-5-5-5-5-5-5-5-5-5-5-5-5-5-5-5-7-7-7-7-7-7-7-7-7-7-7-7-7-7-7-7-7-||-3-3-3-3-3-3-3-3-3-3-3-3-3-3-3-3-5-5-5-5-5-5-5-5-5-6-6-6-6-6-6-6-6-||-------------------------------------------------------------------|
Back to first interlude Riff1 A and B Riff2 Riff3
(gtr1)|-0-0-0-0-0-0-0-0-0-0-0-0-5-5-5-5-5-5-3-3-3-3-3-3-||-------------------------------------------------||-------------------------------------------------||-------------------------------------------------||-------------------------------------------------||-------------------------------------------------|
| ||(gtr3, right channel) ||-------------------------------------------------||-------------------------------------------------||-2-2-2-2-2-2-2-2-2-2-2-2-5-5-5-5-5-5-4-4-4-4-4-4-||-------------------------------------------------||-------------------------------------------------||-------------------------------------------------|
| ||(gtr2) ||-------------------------------------------------||-------------------------------------------------||-------------------------------------------------||-------------------------------------------------||-------------------------------------------------||-5-5-5-5-5-5-5-5-5-5-5-5-8-8-8-8-8-8-3-3-3-3-3-3-|
(gtr1)|-5-5-5-5-5-5-3-3-3-3-3-3-5-5-5-5-5-5-3-3-3-3-3-3-||-------------------------------------------------||-------------------------------------------------||-------------------------------------------------||-------------------------------------------------||-------------------------------------------------|
| ||(gtr3) ||-------------------------------------------------||-------------------------------------------------||-5-5-5-5-5-5-4-4-4-4-4-4-5-5-5-5-5-5-4-4-4-4-4-4-||-------------------------------------------------||-------------------------------------------------||-------------------------------------------------|
| ||(gtr2) ||-------------------------------------------------||-------------------------------------------------||-------------------------------------------------||-------------------------------------5-5-5-5-5-5-||-------------------------5-5-5-5-5-5-------------||-5-5-5-5-5-5-5-5-5-5-5-5-------------------------|
(gtr1)|-5-5-5-5-5-5-3-3-3-3-3-3-5-5-5-5-5-5-3-3-3-3-3-3-||-------------------------------------------------||-------------------------------------------------||-------------------------------------------------||-------------------------------------------------||-------------------------------------------------|
| ||(gtr3) ||-------------------------------------------------||-------------------------------------------------||-5-5-5-5-5-5-4-4-4-4-4-4-5-5-5-5-5-5-4-4-4-4-4-4-||-------------------------------------------------||-------------------------------------------------||-------------------------------------------------|
| ||(gtr2) ||-------------------------------------------------||-------------------------------------------------||-------------------------------------------------||-------------------------------------------------||-------------------------------------------------||-5-5-5-5-5-5-5-5-5-5-5-5-8-8-8-8-8-8-3-3-3-3-3-3-|
Both guitars:|---------------------------||---------------------------||---------------------------||-2-----2-----2-----2-----2-||-0--2--0--2--0--2--0--2--0-||----0-----0-----0-----0----|
(Gtr1)|-----------------------------------------------------------------------9-10-11-12-13-14-15-16-17-||-----------------------------------------------------------10-11-12-13---------------------------||-----------------------------------------------10-11-12-13---------------------------------------||-----------------------------------11-12-13-14---------------------------------------------------||-----------------------12-13-14-15---------------------------------------------------------------||9-10-11-12-13-14-15-16---------------------------------------------------------------------------|
|----------------||------10--------||-----9----------||---10-------2---||-12---------0---||----------------|
----------------------------------------------------------------------------- 5. Lake Bobom Tune down 1 1/2 step 144 bpm 4/4 time
A5 notes in parenthisis 3rd and 4th time only|----------|-----------------------------12-17----------------||----------|-----10-12-13-10----10-12-13----------------------||----------|*-------------------------------------------------||----------|*-14----------------------------------------14----||----------|--------------------------------------------------||----------|--------------------------------------------------|
|
|----------|--------------------------------------------------||----------|--------------------------------------------------||-------2--|*-2------------------------------------------2----||-------2--|*-2------------------------------------------2----||-------0--|--0----(0-----0-----0-----0--0--0-----0)-----0----||----------|--------------------------------------------------|
F5 G5|-------------------------15----13-12-------------||----10-12-13-10----12-13-------------15-13-12----||----------------------------------------------12-||-14----------------------------------------------||-------------------------------------------------||-------------------------------------------------|
|
|-------------------------------------------------||-------------------------------------------------||-2-----------------------------------------------||-2-----------------------3-----------5-----------||-0----(0-----0--0--0)----3-----------5-----------||-------------------------1-----------3-----------|
A5|----------------------------12-17----------------||----10-12-13-10----10-12-13----------------------||-14----------------------------------------------||-------------------------------------------14----||-------------------------------------------------||-------------------------------------------------|
|
|-------------------------------------------------||-------------------------------------------------||-2------------------------------------------2----||-2------------------------------------------2----||-0----(0-----0-----0-----0--0--0-----0)-----0----||-------------------------------------------------|
repeat 4 times C5 G5|-------------------------12-15-13-12--------------||----10-12-13-10----12-13-------------15-13-12-----||----------------------------------------------14-*||-14----------------------------------------------*||--------------------------------------------------||--------------------------------------------------|
|
|--------------------------------------------------||--------------------------------------------------||-2-----------------------5-----------------------*||-2-----------------------5-----------5-----------*||-0----(0-----0--0--0)----3-----------5------------||-------------------------------------3------------|
E5|-------------------------------------------------||----------------13-------------------------------||-------13-14-16----16-14-13-16-14-13----14-13----||-14-15-------------------------------15-------15-||-------------------------------------------------||-------------------------------------------------|
|
|-------------------------------------------------||-------------------------------------------------||-------------------------------------------------||-2-----2-----2-----2-----2-----2-----2-----2-----||-2-----2-----2-----2-----2-----2-----2-----2-----||-0-----0-----0-----0-----0-----0-----0-----0-----|
|-------------------------------------------------||-------------------------------------------------||----13-------------------------------------------||-14----15-14-12-15-14-15-12-15-10-15----15----15-||-------------------------------------14----11----||-------------------------------------------------|
|
|-------------------------------------------------||-------------------------------------------------||-------------------------------------------------||-2-----------------------------------------------||-2-----------------------------------------------||-0-----------------------------------------------|
A5 A5 F5 G|---------------------------------|--------------------------------||---------------------------------|--------------------------------||---------------------------------|--------------------------------||---------------------------------|------------------------3---5---||-12------------------------------|--------------------0---3---5---||---------------------------------|--------------------0---1---3---|
|
|---------------------------------|--------------------------------||---------------------------------|--------------------------------||-2--------------(9)----------5---|-7----------7---9---------------||-2-----------7---9-----------5---|-5----------7---7---2---3---5---||-----0-0---0---------0-0---0-----|----0-0---0---------0---3---2---||---------------------------------|--------------------------------|
Riff A A5 A5 F5 G|----------------------------------|--------------------------------||----------------------------------|--------------------------------||*-2-------------------------------|-------------------------------*||*-2-------------------------------|------------------------3---5--*||--0-------------------------------|--------------------0---3---5---||----------------------------------|--------------------0---1---3---|
|
|----------------------------------|--------------------------------||----------------------------------|--------------------------------||*-2--------------(9)----------5---|-7----------7---9--------------*||*-2-----------7---9-----------5---|-5----------7---7---2---3---5--*||------0-0---0---------0-0---0-----|----0-0---0---------0---3---2---||----------------------------------|--------------------------------|
A5 A5 F5 G|---------------------------------|--------------------------------||---------------------------------|--------------------------------||-2-------------------------------|--------------------------------||-2-------------------------------|----------------x--\----\-------||-0-------------------------------|----------------x--\----\-------||---------------------------------|--------------------------------|
|
|---------------------------------|--------------------------------||---------------------------------|--------------------------------||-2--------------(9)----------5---|-7----------7---9---------------||-2-----------7---9-----------5---|-5----------7---7---2---3---5---||-----0-0---0---------0-0---0-----|----0-0---0---------0---3---2---||---------------------------------|--------------------------------|
A5 A5 F5 G5 4 times|----------------------------------|---------------------------------||----------------------------------|---------------------------------||*-2-------------------------------|--------------------------------*||*-2-------------------------------|-----------------2---2----------*||--0---0-0---0-0-0-0-----0---0-0---|-0-----0---0-0---0---3---3---5---||----------------------------------|-------------------------1---3---|
|
|----------------------------------|---------------------------------||----------------------------------|---------------------------------||*-2--------------(9)----------5---|-7-----------7---9--------------*||*-2-----------7---9-----------5---|-5-----------7---7---2---3---5--*||------0-0---0---------0-0---0-----|-----0-0---0---------0---3---2---||----------------------------------|---------------------------------|
|-12p10p8------------------------------------------------------||---------12p10p9----------------------------------------------||-----------------10p9p7---------------------------------------||------------------------10p9p7s6-7----------------------------||--------------------------------------------------------------||--------------------------------------------------------------|
|
|--------------------------------------------------------------||--------------------------------------------------------------||-2------------------------------------------------------------||-2------------------------------------------------------------||-0------------------------------------------------------------||--------------------------------------------------------------|
A5|----------------------------------|---------------------------------||----------------------------------|---------------------------------||*---------------------------------|---------------------------------||*-2-------------------------------|-------------------------2-2-5-5-||--0---0-0-0---0-0-0---0-0-0---0-0-|-0---0-0-0---0-0-3-3-5-5---------||----------------------------------|---------------------------------|
|
|----------------------------------|---------------------------------||----------------------------------|---------------------------------||*-----------------------------5---|-7-----------7---9---------------||*-7-----------7---9-----------5---|-5-----------7---7---2---3---5---||------0-0-0-----------0-0-0-------|-----0-0-0-----------0---3---2---||----------------------------------|---------------------------------|
1. C5 G5|---------------------------------|----------------------------------||---------------------------------|----------------------------------||---------------------------------|---------------------------------*||-7-------------------------------|-----------------5-------5-------*||-----0-0-0---0-0-0---0-0-0---0-0-|-0---0-0-0-0-0-0-3-------5--------||---------------------------------|-------------------------3--------|
|
|---------------------------------|----------------------------------||---------------------------------|----------------------------------||-----------------------------5---|-7-----------7---9---------------*||-7-----------7---9-----------5---|-5-----------7---7---2---3---5---*||-----0-0-0-----------0-0-0-------|-----0-0-0-----------0---3---2----||---------------------------------|----------------------------------|
2. w/VERY heavy muting|---------------------------------||---------------------------------||---------------------------------||-----------------4----5----4-----||-0---0-0-0-0-0-0-4----5----4-----||-----------------2----3----2-----|
|
|---------------------------------||---------------------------------||-7-------------------------------||-5---------------4----5----4-----||-----0-0-0-0-0-0-4----5----4-----||-----------------2----3----2-----|
E5 E5 C5 D5|---------------------------------|---------------------------------||---------------------------------|---------------------------------||---------------------------------|---------------------------------||-2-------------------------------|---------------------2---5---7---||-2-------------------------------|-----------------2---2---3---5---||-0-----0---0-0---0-----0---0-0---|-0-----0---0-0---0---------------|
|
|---------------------------------|---------------------------------||---------------------------------|---------------------------------||---------------------------------|---------------------------------||-2---------------------------5---|-7-----------7---9--------------||-2-----------7---9-----------5---|-5-----------7---7---2---3---5---||-----0-0---0---------0-0---0-----|-----0-0---0---------0---3---2---|
E5 E5 C5 D5|----------------------------------|----------------------------------||----------------------------------|----------------------------------||*---------------------------------|---------------------------------*||*-2-------------------------------|---------------------2---5---7---*||--2---------------5h7---5h7-------|-----------------2---2---3---5----||--0-----0---0-0-------0-----0-0---|-0-----0---0-0---0----------------|
|
|----------------------------------|----------------------------------||----------------------------------|----------------------------------||*---------------------------------|---------------------------------*||*-2---------------------------5---|-7-----------7---9---------------*||--2-----------7---9-----------5---|-5-----------7---7---2---3---5----||------0-0---0---------0-0---0-----|-----0-0---0---------0---3---2----|
E5 E5 C5|---------------------------------|---------------------------------||---------------------------------|---------------------------------||---------------------------------|---------------------------------||-2-------------------------------|---------------------------------||-2---------------5h7---5h7-------|---------------------------------||-0-----0---0-0-------0-----0-0---|-0-----0---0-0---0-0---0-0---0---|
|
|---------------------------------|---------------------------------||---------------------------------|---------------------------------||---------------------------------|---------------------------------||-2---------------------------5---|-7-----------7---9---------------||-2-----------7---9-----------5---|-5-----------7---7---2---3---3---||-----0-0---0---------0-0---0-----|-----0-0---0---------0---3-------|
B C|----------------------------------|---------------------------------||----------------------------------|---------------------------------||*---------------------------------|---------------------------------||*---------------------------------|---------------------------------||--2-2-2-2-2-2-2-2-2-2-2-2-2-2-2-2-|-3-3-3-3-3-3-3-3-3-3-3-3-3-3-3-3-||----------------------------------|---------------------------------|
|
|----------------------------------|---------------------------------||----------------------------------|---------------------------------||*---------------------------------|---------------------------------||*-4---4-4-4-4-4-4-5-5-5-5-7-7-7-7-|-5---5-5-5-5-5-5-4-4-4-4-2-2-2-2-||----------------------------------|---------------------------------||----------------------------------|---------------------------------|
B C|---------------------------------|---------------------------------||---------------------------------|---------------------------------||---------------------------------|-----------------5ah~------------||---------------------------------|---------5-5-5-5-----------------||-2-2-2-2-2-2-2-2-3-3-3-3-5-5-5-5-|-3-3-3-3-------------------------||---------------------------------|---------------------------------|
|
|---------------------------------|---------------------------------||---------------------------------|---------------------------------||---------------------------------|---------------------------------||-4---4-4-4-4-4-4-5-5-5-5-7-7-7-7-|-5---5-5-5-5-5-5-4-4-4-4-2~------||---------------------------------|---------------------------------||---------------------------------|---------------------------------|
B C|---------------------------------|----------------------------------||---------------------------------|----------------------------------||-8-----------8---9-------11------|-9-----------9---11------9--------||-9---9-9-9-9-9---9---9-9-9---9-9-|-10--1010101010--10--101010--1010-||---------------------------------|----------------------------------||---------------------------------|----------------------------------|
|
|---------------------------------|----------------------------------||---------------------------------|----------------------------------||---------------------------------|----------------------------------||-4---4-4-4-4-4---5-5-5-5-7-7-7-7-|-5---5-5-5-5-5---4-4-4-4-2-2-2-2--||---------------------------------|----------------------------------||---------------------------------|----------------------------------|
1.|-------------------------------8-|-7p5----------------------------------------||---------------------------------|-----8p7p5----------------------------------||-5-----------5---8-------8-------|-----------8p5p4---------------------------*||-7---7-7-7-7-7---9---9-9-9-------|-----------------7p5p4---------------------*||---------------------------------|-----------------------7p6-7----------------||---------------------------------|--------------------------------------------|
|
|-------------------------------8-|-7p5----------------------------------------||---------------------------------|-----8p7p5----------------------------------||-5---5-5-5-5-5---4-4-4-4---------|-----------8p5p4---------------------------*||-------------------------7-------|-----------------7p5p4---------------------*||---------------------------------|-----------------------7p6-7----------------||---------------------------------|--------------------------------------------|
2.|---------------------------------|--------------------------------------------||---------------------------------|--------------------------------------------||-5-----------5---8-------8-------|-9------------------------------------------||-7---7-7-7-7-7---9---9-9-9-------|-9------------------------------------------||---------------------------------|-7------------------------------------------||---------------------------------|--------------------------------------------|
|
|---------------------------------|-------------------------------------12-----||---------------------------------|----------------------------12h13h15--------||-5---5-5-5-5-5---4-4-4-4---------|-------------------11h12h14-----------------||-------------------------7-7-7---|----------10h12h14--------------------------||---------------------------------|-12--h14------------------------------------||---------------------------------|--------------------------------------------|
Chorus G5|----------------------------------|---------------------------------||----------------------------------|---------------------------------||*---------------------------------|---------------------------------||*-8-----------7---8-------10------|-12------10------8-------10------||--10------101010--10--101010--1010|-10--101010--101010--101010------||----------------------------------|---------------------------------|
|
|----------------------------------|---------------------------------||----------------------------------|---------------------------------||*---------------------------------|---------------------------------||*-5---------------5---------------|-5-------------------------------||--5-----------3---5-------3-------|-5---------------5-------3-------||--3-----------1---3-------1---x-x-|-3---------------3-------1-------|
F5 Eb5|---------------------------------|----------------------------------||---------------------------------|----------------------------------||---------------------------------|---------------------------------*||-8-----------7---8-------10------|-7-------8-------5---------------*||-10------101010--10--101010--1010|-8---8-8-8---8-8-6----------------||---------------------------------|----------------------------------|
|
|---------------------------------|----------------------------------||---------------------------------|----------------------------------||---------------------------------|-----------------8---------------*||-5----------------5--------------|-3---------------8---------------*||-5------------3---5------5-------|-3---------------6--------------
Tap to rate this tab
 
# A B C D E F G H I J K L M N O P Q R S T U V W X Y Z