Children Of Bodom - War Of Razors tab

                                War of razors


                                               Children of Bodom (Alexi & Janne)
Alexi
tabbed by esp (esp@n2.com


D||------------------|------------------|------------------|------------------|A||------------------|------------------|------------------|------------------|F||------------------|------------------|------------------|------------------|C||------------------|------------------|------------------|------------------|G||------------------|------------------|------------------|------------------|D||------------------|------------------|------------------|------------------|
------------------|------------------|------------------|------------------|------------------|------------------|------------------|------------------|------------------|------------------|------------------|------------------|------------------|------------------|------------------|------------------|------------------|------------------|------------------|------------------|------------------|------------------|------------------|------------------|
------------------|------------------|------------------|------------------|------------------|------------------|------------------|------------------|------------------|------------------|------------------|------------------|------------------|------------------|------------------|------------------|------------------|------------------|------------------|------------------|------------------|------------------|------------------|------------------|
------------------|------------------|------------------|------------------|------------------|------------------|------------------|------------------|------------------|------------------|------------------|------------------|------------------|------------------|------------------|------------------|------------------|------------------|------------------|------------------|------------------|------------------|------------------|------------------|
------------------|------------------|------------------|------------------|------------------|------------------|------------------|------------------|------------------|------------------|------------------|------------------|------------------|------------------|------------------|------------------|------------------|------------------|------------------|------------------|------------------|------------------|------------------|------------------|
------------------|-------------------|-----------------------------|------------------|-------------------|---------10------10r---------|------------------|--6b---------------|--9--11------11--------------|------------------|-------------------|-----------------------------|------------------|-------------------|-----------------------------|------------------|-------------------|-----------------------------|
-------------------|--9b-------7b-------|---------------------|-------------------|--------------------|--7r-----------------|--9r---------------|--------------------|-----------9---------|-------------------|--------------------|----------------9----|-------------------|--------------------|---------------------|-------------------|--------------------|---------------------|
-------------------|------------------|--10b---------------|-------------------|------------------|--------------------|----------9--------|------------------|--------------------|-------------------|------------------|--------------------|-------------------|------------------|--------------------|-------------------|------------------|--------------------|
--12-14-12-10-12--14--15--14--14r---|------12-10-12-10-------10----------------|------------------------------------|------------------12-10----12-10----------|------------------------------------|---------------------------------12-14-12-|------------------------------------|------------------------------------------|------------------------------------|------------------------------------------|------------------------------------|------------------------------------------|
--------------------------------------------|------------------|--------------------------------------------|------------------|--14-15-14-12----12-------------------------|------------------|--------------14-----14-12------------------|------------------|---------------------------14-13-11---------|------------------|------------------------------------15-12\--|------------------|
------------------|------------------|------------------|------------------|------------------|------------------|------------------|------------------|------------------|------------------|------------------|------------------|------------------|------------------|------------------|------------------|------------------|------------------|------------------|------------------|------------------|------------------|------------------|------------------|
------------------|------------------|------------------|------------------|------------------|------------------|------------------|------------------|------------------|------------------|------------------|------------------|------------------|------------------|------------------|------------------|------------------|------------------|------------------|------------------|------------------|------------------|------------------|------------------|
------------------|------------------|------------------|------------------|------------------|------------------|------------------|------------------|------------------|------------------|------------------|------------------|------------------|------------------|------------------|------------------|------------------|------------------|------------------|------------------|------------------|------------------|------------------|------------------|
------------------|------------------|--17r---------------|------------------|------------------|------------------|--------------------|------------------|------------------|------------------|--------------------|------------------|------------------|------------------|--------------------|------------------|------------------|------------------|--------------------|------------------|------------------|------------------|--------------------|------------------|
--------------------|------------------|--15b---------------|------------------|--------------------|------------------|--------------------|------------------|--------------------|------------------|--------------------|------------------|
--------------------------------------------------|--17-15----------15-------------------------------|--------15-14-12----15-14-12-11-15-14-12-15-15-12-|--------------------------------------------------|--------------------------------------------------|--------------------------------------------------|
--------------------------------------------------|--------------------------------------------------|--------------------------12-14-15-14-12-15-14-12-|--14-12----------12-14-16-------------------------|--------14-12-14----------------------------------|--------------------------------------------------|
--------------------14-15-16-15-14----------------|--14-15-12-14-15-12----------------17-15-14-12-15-|--------------------------------------------------|--------------------------------------------------|--------------------------------------------------|--------------------------------------------------|
--------------------------------------------------|--14-12-14-15-14-12-14-15-14-12----------14-12-14-|--------------------------------15-14-12----------|--------------------------------------------------|--------------------------------------------------|--------------------------------------------------|
--------------------------------------------------|--15-14-12----------------------------------------|-----------15-14-12-15-14-12-14-12-14-15-14-12----|-----------------------------------------------14-|--------------------------------------------------|--------------------------------------------------|
--------------------------------------------|--------------------------------------------|-----14-12----------------------------------|--12-------14-12-------14-12----------------|-----------------14-12-------14-12----------|-----------------------------------15-12----|
--------------------------------------------------|--------------------------------------------------|--------------------------------------------------|--------------------------------15-17-18-15-17-18-|-----------12----------12-14-15-------------------|--12-14-15----15-14-15----------------------------|
-----------------------19-20-22-24\-----|------------------|------------------|-----------19-18-19-21------------------|------------------|------------------|--16-18-20------------------------------|------------------|------------------|----------------------------------------|------------------|------------------|----------------------------------------|------------------|------------------|----------------------------------------|------------------|------------------|
------------------|------------------|------------------|------------------|------------------|------------------|------------------|------------------|------------------|------------------|------------------|------------------|------------------|------------------|------------------|------------------|------------------|------------------|------------------|------------------|------------------|------------------|------------------|------------------|
------------------|------------------|------------------|------------------|------------------|------------------|------------------|------------------|------------------|------------------|------------------|------------------|------------------|------------------|------------------|------------------|------------------|------------------|------------------|------------------|------------------|------------------|------------------|------------------|
--15-15-15-15-14----------15--------|------------------|-----------------17-15-14-----------|------------------|------------------------------------|------------------|------------------------------------|------------------|------------------------------------|------------------|------------------------------------|------------------|
--17-15-19-15-17-15-------19--------|------------------|--------------------17-14-----------|------------------|------------------------------------|------------------|------------------------------------|------------------|------------------------------------|------------------|------------------------------------|------------------|
--------------------15-19-24t-------|------------------|------------------|-----------------17-----------------|------------------|------------------|--------------16--------------------|------------------|------------------|-----------17-----------------------|------------------|------------------|-----14-19--------------------------|------------------|------------------|--15--------------------------------|------------------|------------------|
--20-19-17----------------------------------------|-----------20-19-17-20-19-17----------------------|-----------------------------19-17-16-19-17-16----|-----------------------------------------------19-|--------------------------------------------------|--------------------------------------------------|
------------------------------------------------|------------------|------------------------------------------------|------------------|------------------------------------------------|------------------|--17-16-19-17-16--------------------------------|------------------|-----------------19-17-15-19-17-15--------------|------------------|-----------------------------------19-17-14-15--|------------------|
------------------|------------------|------------------|------------------|------------------|------------------|------------------|------------------|------------------|------------------|------------------|------------------|------------------|------------------|------------------|------------------|------------------|------------------|------------------|------------------|------------------|------------------|------------------|------------------|
--12-14-15-14-12-15-12-14-15-14-12-15-12-14-15-14-|--------------------------------------------------|--------------------------------------------------|--------------------------------------------------|--------------------------------------------------|--------------------------------------------------|
--12-15-12-14-15-14-12-15-12-14-15-14-12-15-12-14-|--------------------------------------------------|--------------------------------------------------|--------------------------------------------------|--------------------------------------------------|--------------------------------------------------|
--15-14-12-17-12-15-12-14-15-14-12-17-12-15-12-14-|--------------------------------------------------|--------------------------------------------------|--------------------------------------------------|--------------------------------------------------|--------------------------------------------------|
--15-14-12-17-12-15-12-14-15-14-12-17-12-14-15-14-|--------------------------------------------------|--------------------------------------------------|--------------------------------------------------|--------------------------------------------------|--------------------------------------------------|
--12-17-12-14-15-14-12-17-12-14-15-14-12-17-19-19-|--------------------------------------------------|--------------------------------------------------|--------------------------------------------------|--------------------------------------------------|--------------------------------------------------|
--19-19-19-19-19-19-19-19-19--------|------------------|------------------|------------------------------------|------------------|------------------|------------------------------------|------------------|------------------|------------------------------------|------------------|------------------|------------------------------------|------------------|------------------|------------------------------------|------------------|------------------|
------------------|------------------|------------------|------------------|------------------|------------------|------------------|------------------|------------------|------------------|------------------|------------------|------------------|------------------|------------------|------------------|------------------|------------------|------------------|------------------|------------------|------------------|------------------|------------------|
------------------|------------------|------------------|------------------|------------------|------------------|------------------|------------------|------------------|------------------|------------------|------------------|------------------|------------------|------------------|------------------|------------------|------------------|------------------|------------------|------------------|------------------|------------------|------------------|
------------------||-----------------------|----------------------|------------------||-----------------------|----------------------|------------------||*----------------------|----------------------|------------------||*--2-------------------|--4-------------------|------------------||---0-------------------|--2-------------------|------------------||--------2----2----2----|-------2----2----2----|
3x---------------------|----------------------||--||---------------------|----------------------||--||---------------------|---------------------*||--||---------------------|---------------------*||--||--2--------4----5----|------4---------------||--||--0--------2----3----|------2----2----2-----||--||
Tap to rate this tab
 
# A B C D E F G H I J K L M N O P Q R S T U V W X Y Z