Children Of Bodom - Hate Crew Death Roll tab

Children of Bodom
"Hate Crew Death Roll"
Hate Crew Death Roll
Tabbed By: Kevin Cruz

Tune strings down one whole Step



|----------------|----------------|----------------|----------------||----------------|----------------|----------------|----------------||----------------|----------------|----------------|----------------||7-9-7-9---------|7-9-7-9---------|7-9-7-9---------|2-2-2-2-5-5-5-5-||5-7-5-7---------|5-7-5-7---------|5-7-5-7---------|0-0-0-0-3-3-3-3-||--------0-0-0-0-|--------0-0-0-0-|--------0-0-0-0-|----------------|
|----------------|----------------|----------------|----------------||----------------|----------------|----------------|----------------||----------------|----------------|----------------|----------------||7-9-7-9---------|7-9-7-9---------|7-9-7-9---------|9-9-9-9-7-7-7-7-||5-7-5-7---------|5-7-5-7---------|5-7-5-7---------|7-7-7-7-5-5-5-5-||--------0-0-0-0-|--------0-0-0-0-|--------0-0-0-0-|----------------|
|----------------|----------------|----------------|----------------||----------------|----------------|----------------|----------------||----------------|----------------|----------------|----------------||7-9-7-9---------|7-9-7-9---------|7-9-7-9---------|2-2-2-2-5-5-5-5-||5-7-5-7---------|5-7-5-7---------|5-7-5-7---------|0-0-0-0-3-3-3-3-||--------0-0-0-0-|--------0-0-0-0-|--------0-0-0-0-|----------------|
|----------------|----------------|----------------|----------------||----------------|----------------|----------------|----------------||----------------|----------------|----------------|----------------||7-9-7-9---------|7-9-7-9---------|7-9-7-9---------|9-9-9-9-7-7-7---||5-7-5-7---------|5-7-5-7---------|5-7-5-7---------|7-7-7-7-5-5-5---||--------0-0-0-0-|--------0-0-0-0-|--------0-0-0-0-|----------------|
|----------------|----------------|----------------|----------------||----------------|----------------|----------------|----------------||----------------|----------------|----------------|----------------||7-9-7-9---------|7-9-7-9---------|7-9-7-9---------|2-2-2-2-5-5-5-5-||5-7-5-7---------|5-7-5-7---------|5-7-5-7---------|0-0-0-0-3-3-3-3-||--------0-0-0-0-|--------0-0-0-0-|--------0-0-0-0-|----------------|
|----------------|----------------|----------------|----------------||----------------|----------------|----------------|----------------||----------------|----------------|----------------|----------7-7-7-||7-9-7-9---------|7-9-7-9---------|7-9-7-9---------|----------7-7-7-||5-7-5-7---------|5-7-5-7---------|5-7-5-7---------|2-2---2---5-5-5-||--------0-0-0-0-|--------0-0-0-0-|--------0-0-0-0-|0-0-.-0-.-------|
|----------------|----------------|----------------|----------------||----------------|----------------|----------------|----------------||----------------|----------------|----------------|4-4-4-4---------||----------------|----------------|----------------|2-2-2-2---------||3-2---2-3-2-5-2-|3-2---2-3-2-5-2-|3-2---2-3-2-5-2-|--------2-2-2-2-||----------------|----------------|----------------|----------------|
|----------------|----------------|----------------|----------------||----------------|----------------|----------------|----------------||----------------|----------------|----------------|4-4-4-4-3-3-3-3-||----------------|----------------|----------------|2-2-2-2-1-1-1-1-||3-2---2-3-2-5-2-|3-2---2-3-2-5-2-|3-2---2-3-2-5-2-|----------------||----------------|----------------|----------------|----------------|x2
|------------------|----------------|------------------|--------------------||------------------|----------------|------------------|-----10-12----------||----10-------12---|----------------|----10-------12---|----------------7-9-||----10-------12---|----------------|----10-------12---|9-12----------------||------------------|2---------------|------------------|-----------7-10-----||0-0------0-0------|0---0-0-000-0-0-|0-0------0-0------|--------------------|
|------------------|----------------|------------------|--------------------||------------------|----------------|------------------|-----10-12----------||----10-------12---|----------------|----10-------12---|----------------7-9-||----10-------12---|----------------|----10-------12---|9-12----------------||------------------|2---------------|------------------|-----------7-10-----||0-0------0-0------|0---0-0-000-0-0-|0-0------0-0------|--------------------|
|0-0-5-0-0-0-5-0-|0-0-5-0-0-0-0---||----NH------NH--|----NH----------||----------------|----------------||----------------|--------------x-||----------------|--------------x-||----------------|----------------|
|----------------|----------------|----------------|----------------||----------------|----------------|----------------|----------------||----------------|----------------|----------------|----------------||7-9-7-9---------|7-9-7-9---------|7-9-7-9---------|2-2-2-2-5-5-5-5-||5-7-5-7---------|5-7-5-7---------|5-7-5-7---------|0-0-0-0-3-3-3-3-||--------0-0-0-0-|--------0-0-0-0-|--------0-0-0-0-|----------------|
|----------------|----------------|----------------|----------------||----------------|----------------|----------------|----------------||----------------|----------------|----------------|----------7-7-7-||7-9-7-9---------|7-9-7-9---------|7-9-7-9---------|----------7-7-7-||5-7-5-7---------|5-7-5-7---------|5-7-5-7---------|2-2---2---5-5-5-||--------0-0-0-0-|--------0-0-0-0-|--------0-0-0-0-|0-0-.-0-.-------|
|----------------|----------------|----------------|----------------||----------------|----------------|----------------|----------------||----------------|----------------|----------------|9-9-9-9-4-4-4-4-||----------------|----------------|----------------|9-9-9-9-4-4-4-4-||3-------3---5---|3-------3---5---|3-------3---5---|7-7-7-7-2-2-2-2-||1-0-0-0-1-0-3-0-|1-0-0-0-1-0-3-0-|1-0-0-0-1-0-3-0-|----------------|
|----------------|----------------|----------------|----------------||----------------|----------------|----------------|----------------||----------------|----------------|----------------|9-9-9-9-8-8-8-8-||----------------|----------------|----------------|9-9-9-9-8-8-8-8-||3-------3---5---|3-------3---5---|3-------3---5---|7-7-7-7-6-6-6-6-||1-0-0-0-1-0-3-0-|1-0-0-0-1-0-3-0-|1-0-0-0-1-0-3-0-|----------------|x2
Chorus
|------12-15-14-12----12-|12-------12-14-------14-||---12-------------15----|---12-15-------12-15----||12----------------------|------------------------||------------------------|------------------------||------------------------|------------------------||------------------------|------------------------|
|15----15-14-14-12----12~--------------------||---12-------------15----|--15-12-15~-12-----||------------------------|---------------14~-||------------------------|-------------------||------------------------|-------------------||------------------------|-------------------|x2
|------------------------|------------------------||------12-15-14-------14-|12-------12-14-------14-||---12-------------12----|------12----------12----||12-------------12-------|---12----------12-------||------------------------|------------------------||------------------------|------------------------|
|------------------------|-----------------------||------12-15-14-------14-|12---------------------||---12-------------12----|------12-14----11------||12-------------12-------|---12-------12----.-12-||------------------------|-----------------------||------------------------|-----------------------|
|------12-15-14-12----14-|17----14-17-19----15-19-||---12-------------15----|---15----------17-------||12----------------------|------------------------||------------------------|------------------------||------------------------|------------------------||------------------------|------------------------|
|---------12-15-14-12----|12----------------------||------12-------------15-|------15-12-15----------||---12-------------------|------------------16-14-||12----------------------|------------------------||------------------------|------------------------||------------------------|------------------------|
|------------------|----------------|------------------|--------------------||------------------|----------------|------------------|-----10-12----------||----10-------12---|----------------|----10-------12---|----------------7-9-||----10-------12---|----------------|----10-------12---|9-12----------------||------------------|2---------------|------------------|-----------7-10-----||0-0------0-0------|0---0-0-000-0-0-|0-0------0-0------|--------------------|
|------------------|----------------|------------------|--------------------||------------------|----------------|------------------|-----10-12----------||----10-------12---|----------------|----10-------12---|----------------7-9-||----10-------12---|----------------|----10-------12---|9-12----------------||------------------|2---------------|------------------|-----------7-10-----||0-0------0-0------|0---0-0-000-0-0-|0-0------0-0------|--------------------|
|0-0-5-0-0-0-5-0-|0-0-5-0-0-0-5-0-|0-0-5-0-0-0-5-0-|0-0-5-0-0-0-5-0-||----NH------NH--|----NH------NH--|----NH------NH--|----NH------NH--||----------------|----------------|----------------|----------------||----------------|----------------|----------------|----------------||----------------|----------------|----------------|----------------||----------------|----------------|----------------|----------------|
|0-0-5-0-0-0-5-0-|0-0-5-0-0-0-5-0-|----------------|NH--------------||----NH------NH--|----NH------NH--|Big Slide-------|5~--------------||----------------|----------------|----------------|5---------------||----------------|----------------|----------------|----------------||----------------|----------------|----------------|----------------||----------------|----------------|----------------|----------------|
Solo
|10~~------------|----------------|17~-------------|15~-----------18||13CU------------|----------------|CU--------------|CU--------------||----------------|12~-------------|----------------|----------------||----------------|CU--------------|----------------|----------------||----------------|----------------|----------------|----------------||----------------|----------------|----------------|----------------|
|1815--15----------- _3_ | _3_ _3_ ------------|------------------------|| | |17 |17--17---- | | || | | | | | | _3_ _3_ |------------------------|| | | | | |18 |18151815 ||1815 |15 | | | | | | | ||---------------------15-|| | | | | | | | | |----17|----17--17141714 |14 | ||------------------13----||--3------3-----3--------|----------------16--1613|------13-16-12-13-------||------------------------|------------------------|12-15-------------------|
|---------------------------x|1717171717161616x2222222222212121||----------------------------|----------------s | | | |--------||14--------------------------|---------------------4-----------||---12-15-14-12~-------------|---------------------------------||----------------------------|---------------------------------||----------------------------|---------------------------------|
|151214151715141719171519|191715--15----------------------|| | | | | | | | | | | | ||------17 |1715--1715----15------||---3-----3-----3-----3--|-------- | | |16----1614 |1614--||------------------------|-------- | | | |-------- | | |17||------------------------|------------4----------- | | | |||------------------------|----------------------------4---|
|------------------------|---------------------12-||------------------------|------------15-12-15----||------------------14-12-|12-14-12-14-------------||14----14-17-14-17-------|------------------------||---17-------------------|------------------------||------------------------|------------------------|
|------12----12-15-12-15-|17---22-19-19~~---------||12-15----15-------------|-CU--t--p---Vib---------||------------------------|------------------------||------------------------|------------------------||------------------------|------------------------||------------------------|------------------------|
|------------------------|------------------------||15~---------------------|17----22-17-20-17~~-----||17----------------------|-----t---p--t--p--------||-CU---------------------|------------------------||------------------------|------------------------||------------------------|------------------------|
|--71015107---71014107-|--71012107---71012107-||-8-h-t-p--8-8-h-t-p--8|-8-h-t-p--8-8-h-t-p--8||7----------7----------|7----------7----------||----------------------|----------------------||----------------------|----------------------||----------------------|----------------------|
|------------1519241915------1519|| __4__ --17--h-t|p|p|17--17--h-|| | | | |16------ | | | |16------|| | | |17------------4-----------|| | |19--------------------------||1519----------------------------|
|201920191715-tp-t---p-p-|201920191715-tp-t---p-p-|
| | | | | | |201920191715| | | | | | |201920191715|| | | | | | | | | | | | || | | | | | | | | | | | |||-----6-----------6------|-----6-----------6------||------------------------|------------------------||------------------------|------------------------|
|--____6____-- ____6____-|--____6____-- ____6____-|
| | | | | | | | | | | | || | | | | | | | | | | | |||211921191716241924191716|211921191716241924191716||-tp-t---p-p--tp-t---p-p-|-tp-t---p-p--tp-t---p-p-||------------------------|------------------------||------------------------|------------------------|
|------------------------|------------------------||--____6____-- ____6____-|--____6____-- ____6____-|
| | | | | | | | | | | | || | | | | | | | | | | | |||211921191716241924191716|211921191716241924191716||-tp-t---p-p--tp-t---p-p-|-tp-t---p-p--tp-t---p-p-||------------------------|------------------------|
|----------------|----------------|----------------|----------------||----------------|----------------|----------------|----------------||----------------|----------------|----------------|9-9-9-9-4-4-4-4-||----------------|----------------|----------------|9-9-9-9-4-4-4-4-||3-------3---5---|3-------3---5---|3-------3---5---|7-7-7-7-2-2-2-2-||1-0-0-0-1-0-3-0-|1-0-0-0-1-0-3-0-|1-0-0-0-1-0-3-0-|----------------|
|----------------|----------------|----------------|----------------||----------------|----------------|----------------|----------------||----------------|----------------|----------------|9-9-9-9-8-8-8-8-||----------------|----------------|----------------|9-9-9-9-8-8-8-8-||3-------3---5---|3-------3---5---|3-------3---5---|7-7-7-7-6-6-6-6-||1-0-0-0-1-0-3-0-|1-0-0-0-1-0-3-0-|1-0-0-0-1-0-3-0-|----------------|x2
|------12-15-14-12----12-|12-------12-14-------14-||---12-------------15----|---12-15-------12-15----||12----------------------|------------------------||------------------------|------------------------||------------------------|------------------------||------------------------|------------------------|
|15----15-14-14-12----12~--------------------||---12-------------15----|--15-12-15~-12-----||------------------------|---------------14~-||------------------------|-------------------||------------------------|-------------------||------------------------|-------------------|x2
|------------------------|------------------------||------12-15-14-------14-|12-------12-14-------14-||---12-------------12----|------12----------12----||12-------------12-------|---12----------12-------||------------------------|------------------------||------------------------|------------------------|
|------------------------|-----------------------||------12-15-14-------14-|12---------------------||---12-------------12----|------12-14----11------||12-------------12-------|---12-------12----.-12-||------------------------|-----------------------||------------------------|-----------------------|
|------12-15-14-12----14-|17----14-17-19----15-19-||---12-------------15----|---15----------17-------||12----------------------|------------------------||------------------------|------------------------||------------------------|------------------------||------------------------|------------------------|
|---------12-15-14-12----|12----------------------||------12-------------15-|------15-12-15----------||---12-------------------|------------------16-14-||12----------------------|------------------------||------------------------|------------------------||------------------------|------------------------|
|----12-------15---|----------------|------------------||----15CU-----18CU-|----------------|------------------||------------------|----------------|------------------||------------------|----------------|----5-------------||------------------|2---------------|----3--------2----||0-0------0-0------|0---0-0-000-0-0-|0-0------0-0-0----|
Tap to rate this tab
 
# A B C D E F G H I J K L M N O P Q R S T U V W X Y Z