Children Of Bodom - Reap And Roll Excercise 3 tab

D||----------------------------|---------------------------|A||----------------------------|---------------------------|F||*------------------------0--|---------------------------|C||*--4------------------4--0--|--4------------------7--7--|G||---4------------------4-----|--4------------------5--7--|D||---2----2-2-2-2--2-2--------|--2----2-2-2-2--2-2--------|
---------------------------|-----------------------------||---------------------------|-----------------------------||------------------------0--|----------------------------*||--4------------------4--0--|--4-------------------------*||--4------------------4-----|--4--------------------------||--2----2-2-2-2--2-2--------|--2----2-2-2-2-2-0--0--0--0--||
-----------------------------------|--------------------------------|-----------------------------------|--------------------------------|-----------------------------------|--------------------------------|-----------------------------------|--------------------------------|--5h7-------------5h7-----10h7-----|--5h7---------------------6--3--|------0-0-0-0-0-0-----0-0------0-0-|------0-0-0-0-0-0-1-0-0-0-4--1--|
-----------------------------------|-----------------------------------|-----------------------------------|-----------------------------------|--5h7-------------5h7-----10h7-----|------0-0-0-0-0-0-----0-0------0-0-|
----------------------------------------------|----------------------------------------------|---------------------------------------8h9h11-|--------------------------------8h9h11--------|--5h7--------------------7h9h11---------------|------0-0-0-0-0-0-7h9h11----------------------|
-----------------------------------|--------------------------------|-----------------------------------|--------------------------------|-----------------------------------|--------------------------------|-----------------------------------|--------------------------------|--5h7-------------5h7-----10h7-----|--5h7---------------------6--3--|------0-0-0-0-0-0-----0-0------0-0-|------0-0-0-0-0-0-1-0-0-0-4--1--|
-----------------------------------|------------------------------|-----------------------------------|------------------------------|-----------------------------------|------------------------------|-----------------------------------|------------------5-----7-----|--5h7-------------5h7-----10h7-----|--5-7-------------3--5--5--7--|------0-0-0-0-0-0-----0-0------0-0-|------0-0-0-0-0-0----3-----5--|
-----------------------------------|--------------------------------|-----------------------------------|--------------------------------|-----------------------------------|--------------------------------|-----------------------------------|--------------------------------|--5h7-------------5h7-----10h7-----|--5h7---------------------6--3--|------0-0-0-0-0-0-----0-0------0-0-|------0-0-0-0-0-0-1-0-0-0-4--1--|
-----------------------------------|----------------------------------|-----------------------------------|----------------------------------|-----------------------------------|----------------------------------|-----------------------------------|----------------------------------|--5h7-------------5h7-----10h7-----|--5-7-----------------------------|------0-0-0-0-0-0-----0-0------0-0-|------0-0-0-0-0-0-0-2-0-2-0-2-0-2-|
-------------------------------|-----------------------|-------------------------------|-----------------------|-------------------------------|-----------------------|-------------------------------|-----------------------|-------------------------------|-----------------------|--0-2-2-2-2----2-2-2-2-0-0-0-0-|--0-2-2-2-2------------|
-------------------------------|-----------------------------|-------------------------------|-----------------------------|-------------------------------|-----------------------------|-------------------------------|---------------5--4-----3----|-------------------------------|---------------5--4-----1----|--0-2-2-2-2----2-2-2-2-0-0-0-0-|--0-2-2-2-2----3--2--0-------|
-------------------------------|-----------------------|-------------------------------|-----------------------|-------------------------------|-----------------------|-------------------------------|-----------------------|-------------------------------|-----------------------|--0-2-2-2-2----2-2-2-2-0-0-0-0-|--0-2-2-2-2------------|
-------------------------------|--------------------------|-------------------------------|--------------------------|-------------------------------|----------5----10----9----|-------------------------------|--4-4-4-4-----------------|-------------------------------|--------------------------|--0-2-2-2-2----2-2-2-2-0-0-0-0-|--------------------------|
---------4------------|---------------------------5-5-|----------4-------------|--------------4-------|-----------------------5-5-----|---------------4--------|--6--------------6----|--7------------7-7-7-7---------|--6----6----------6--6--|--6-------------------|--7----7-7-7-7-----------------|--6----6----------6--6--|--4-------------------|--5----------------------------|--4----4----------4--4--|----------------------|-------------------------------|------------------------|
---------------------------5-5-|-------------------------------|-----------------------5-5-----|-------------------------------|--7------------7-7-7-7---------|--6----------6----------6------|--7----7-7-7-7-----------------|--6----------6----------6------|--5----------------------------|--4--4-4-4-4-4--4-4-4-4-4--4-4-|-------------------------------|-------------------------------|
--------------------------------|-------------------------------|--------------------------------|-------------------------------|--------------------------------|-------------------------------|--7----------9----------11------|--9----------9----------9------|--5--5-5-5-5-7--7-7-7-7-9---9-9-|--7--7-7-7-7-7--7-7-7-7-7--7-7-|--------------------------------|-------------------------------|
----------------------|---------------------------|--------------------------|----------------------|---------------------------|--------------------------|------5--5------------|---------------------------|--------------------------|------5--5------------|--11----11/-6--6--6--6/-7--|--7--7--7/-9--9--9--9--9--|--7-7-----------------|--9-----9/--4--4--4--4/-5--|--5--5--5/-7--7--7--7--7--|----------------------|---------------------------|--------------------------|
------------------------------|--------------------------------||------------------------------|--------------------------------||--------------9--9--9--9/-11--|--11--11--11/-14--14--14--14/---||--11--11--11--7--7--7--7/-9---|--9---9---9/--12--12--12--12/---||--9---9---9-------------------|--------------------------------||------------------------------|--------------------------------||
Tap to rate this tab
 
# A B C D E F G H I J K L M N O P Q R S T U V W X Y Z