Children Of Bodom - Knuckelduster tab

This may be abit confusing, but its a tab that you cant find ANYWHERE else for a
little while, until its posted up on MSB. So just be happy its here.

Taken from the new COB EP Trashed, Lost & Strungout

Roope's Rythmn parts.

D||----------------------|------------------|----------------------|A||----------------------|------------------|----------------------|F||----------------------|------------------|----------------------|C||----------------------|------------------|----------------------|G||--1--0--0--0----------|------------------|--1h-0--0--0----------|C||--1h-0--0--0----------|------------------|--1h-0--0--0----------|
------------------|----------------------|------------------|------------------|----------------------|------------------|------------------|----------------------|------------------|------------------|----------------------|------------------|------------------|--1h-0--0--0----------|------------------|------------------|--1h-0--0--0----------|------------------|
------------------------|-------------------------|------------------------|------------------------|-------------------------|------------------------|------------------------|-------------------------|------------------------|--------7----------5----|--------10----------8----|------------------------|--------5----------3----|--------8-----------6----|--1h-0--0--0------------|--0--0-------0--0-------|--0--0--------0--0-------|--1h-0--0--0------0--0--|
---------------------------|------------------------|---------------------------|------------------------|---------------------------|------------------------|--7--5--------10--8--------|------------------------|--5--3--------8---6--------|--1h-0--0--0------------|--------0--0---------0--0--|--1h-0--0--0------0--0--|
---------------------------|------------------------|---------------------------|------------------------|---------------------------|------------------------|--7--5--------10--8--------|------------------------|--5--3--------8---6--------|--1h-0--0--0------------|--------0--0---------0--0--|--1h-0--0--0------0--0--|
---------------------------|------------------------|-------------------------|---------------------------|------------------------|-------------------------|---------------------------|------------------------|-------------------------|--7--5--------10--8--------|--------7----------5----|--------10----------8----|--5--3--------8---6--------|--------5----------3----|--------8-----------6----|--------0--0---------0--0--|--0--0-------0--0-------|--0--0--------0--0-------|
------------------------|------------------------|------------------------|------------------------|------------------------|------------------------|------------------------|------------------------|------------------------|------------------------|------2--2--2--2--2--2--|------------------------|--5--4--4--4------2--4--|------------------------|--5--4--4--4------2--4--|--5--4--4--4------2--4--|------------------------|--5--4--4--4------2--4--|
------2--2--------------|------------------------|------------------------|------------5--5--------|------------------------|------------------------|------------------4--4--|------------------------|------------------------|------------------------|------------------------|------2--2--2--2--2--2--|------------------------|--5--4--4--4------2--4--|------------------------|------------------------|--5--4--4--4------2--4--|------------------------|
------------------------|--------------------------|------------------------|------------------------|--------------------------|------------------------|------------------------|--------------------------|------------------------|--4----------------6----|--------------6--6--------|------------------------|-------5--5--5--5-------|--7--7--7--7--------7--7--|--5--4--4--4------2--4--|------------------------|--------------------------|--5--4--4--4------2--4--|
------------------------|------------------------|------2--2--------------|------------------------|------------------------|------------5--5--------|------------------------|------------------------|------------------4--4--|------2--2--2--2--2--2--|------------------------|------------------------|------------------------|--5--4--4--4------2--4--|------------------------|------------------------|--5--4--4--4------2--4--|------------------------|
------------------------|------------------------|------------------------|------------------------|------------------------|------------------------|------------------------|------------------------|------------------------|------------------------|------2--2--2--2--2--2--|--4----------------6----|--5--4--4--4------2--4--|------------------------|-------5--5--5--5-------|--5--4--4--4------2--4--|------------------------|------------------------|
--------------------------|---------------------|--------------------------|--------------------------|---------------3--3--|--3--3--3--3--3--3--3--3--|--------------------------|---------------------|--------------------------|--------------6--6--------|---------------------|--------------------------|--7--7--7--7--------7--7--|--0------------------|--------------------------|--------------------------|--0------------------|--------------------------|
---------------------|--------------------------|---------------------|---------------------|--------------------4--4--|---------------3--3--|---------------2--2--|--------------3--3--------|---------------------|---------------------|--3--3--3--3--------------|---------------------|--0------------------|--------------------------|--0------------------|--0------------------|--------------------------|--0------------------|
--------------------------|------------------------|---------------------------|--3--3--3--3--3--3--3--3--|------------------------|---------------------------|--------------------------|------------------------|---------------------------|--------------------------|--4----4--4--4--4--4----|--3-5-3-5-3-5-3-5-3~-------|--------------------------|------------------------|---------------------------|--------------------------|------------------------|---------------------------|
---------------------|--------------------------|---------------------|---------------3--3--|--3--3--3--3--3--3--3--3--|---------------------|---------------------|--------------------------|---------------2--2--|---------------------|--------------------------|---------------------|--0------------------|--------------------------|--0------------------|--0------------------|--------------------------|--0------------------|
--------------------------|---------------------|--------------------------|--------------------4--4--|---------------3--3--|--3--3--3--3--3--3--3--3--|--------------3--3--------|---------------------|--------------------------|--3--3--3--3--------------|---------------------|--------------------------|--------------------------|--0------------------|--------------------------|--------------------------|--0------------------|--------------------------|
------------------------|------------------|------------------------|------------------------|------------------|------------------------|------------------------|------------------|------------------------|--3----3--3--3--3--5----|------------------|------------------------|--1----1--1--1--1--3----|------------------|--5--4--4--4------2--4--|------------------------|------------------|--5--4--4--4------2--4--|
------------------------|------------------------|------2--2--------------|------------------------|------------------------|------------5--5--------|------------------------|------------------------|------------------4--4--|------2--2--2--2--2--2--|------------------------|------------------------|------------------------|--5--4--4--4------2--4--|------------------------|------------------------|--5--4--4--4------2--4--|------------------------|
------------------------|------------------------|------------------------|------------------------|------------------------|------------------------|------------------------|------------------------|------------------------|------------------------|------2--2--2--2--2--2--|--4----------------6----|--5--4--4--4------2--4--|------------------------|-------5--5--5--5-------|--5--4--4--4------2--4--|------------------------|------------------------|
--------------------------|------------------------|------------------------|--------------------------|------------------------|------------------------|--------------------------|------------------------|------------------------|--------------6--6--------|------------------------|------2--2--2--2--2--2--|--7--7--7--7--------7--7--|--5--4--4--4------2--4--|------------------------|--------------------------|--5--4--4--4------2--4--|------------------------|
------------------------|------2--2--------------|------------------------|------------------------|------------5--5--------|------------------------|------------------------|------------------4--4--|------------------------|------------------------|------------------------|------------------------|--5--4--4--4------2--4--|------------------------|--5--4--4--4------2--4--|--5--4--4--4------2--4--|------------------------|--5--4--4--4------2--4--|
------------------------|------------------------|--------------------------|------------------------|------------------------|--------------------------|------------------------|------------------------|--------------------------|------2--2--2--2--2--2--|--4----------------6----|--------------6--6--------|------------------------|-------5--5--5--5-------|--7--7--7--7--------7--7--|------------------------|------------------------|--------------------------|
---------------------|--------------------------|---------------------|---------------3--3--|--3--3--3--3--3--3--3--3--|---------------------|---------------------|--------------------------|---------------2--2--|---------------------|--------------------------|---------------------|--0------------------|--------------------------|--0------------------|--0------------------|--------------------------|--0------------------|
--------------------------|---------------------|--------------------------|--------------------4--4--|---------------3--3--|--3--3--3--3--3--3--3--3--|--------------3--3--------|---------------------|--------------------------|--3--3--3--3--------------|---------------------|--------------------------|--------------------------|--0------------------|--------------------------|--------------------------|--0------------------|--------------------------|
------------------------|-------------------|---------------------|------------------------|-------------------|---------------3--3--|------------------------|------5r-----------|---------------------|--3----3--3--3--3--5----|-------------------|---------------------|--1----1--1--1--1--3----|-------------------|--0------------------|------------------------|-------------------|--0------------------|
--------------------------|---------------------|--------------------------|--3--3--3--3--3--3--3--3--|---------------------|--------------------4--4--|--------------------------|---------------2--2--|--------------3--3--------|--------------------------|---------------------|--3--3--3--3--------------|--------------------------|--0------------------|--------------------------|--------------------------|--0------------------|--------------------------|
-------------------|---------------------|--------------------|-------------------|---------------------|--------------------|-------------------|---------------------|--------------------|-------------------|---------------------|--------------------|--0----------------|---------------------|--4------------3----|--0----------------|----------12/---4----|--4------------3----|
------------------|--------------------|-------------------|------------------|------------------|--------------------|-------------------|------------------|------------------|--------------------|-------------------|------------------|------------------|--------------------|-------------------|------------------|------------------|--0------------2----|----------4--------|------------------|------------------|--0------------2----|----------4--------|------------------|
------------------|--------------------|-------------------|------------------|------------------|--------------------|-------------------|------------------|------------------|--------------------|-------------------|------------------|------------------|--------------------|-------------------|------------------|------------------|--0------------2----|----------4--------|------------------|------------------|--0------------2----|----------4--------|------------------|
------------------|--------------------|-------------------|------------------|------------------|--------------------|-------------------|------------------|------------------|--------------------|-------------------|------------------|------------------|--------------------|-------------------|------------------|------------------|--0------------2----|----------4--------|------------------|------------------|--0------------2----|----------4--------|------------------|
------------------|--------------------|-------------------|------------------|--------------------|-------------------|------------------|--------------------|-------------------|------------------|--------------------|-------------------|------------------|--0------------2----|----------4--------|------------------|--0------------2----|----------4--------|
---------------------|----------------------|----------------------|---------------------|----------------------|----------------------|---------------------|----------------------|----------------------|---------------------|----------------------|----------------------|------3----3----3----|--3----3----3----3----|--1--0--0--0----------|------3----3----3----|--3----3----3----3----|--1h-0--0--0----------|
------------------|----------------------|------------------|------------------|----------------------|------------------|------------------|----------------------|------------------|------------------|----------------------|------------------|------------------|--1h-0--0--0----------|------------------|------------------|--1h-0--0--0----------|------------------|
----------------------|------------------|------------------------|----------------------|------------------|------------------------|----------------------|------------------|------------------------|----------------------|------------------|--------7----------5----|--1h-0--0--0----------|------------------|--------5----------3----|--1h-0--0--0----------|------------------|--0--0-------0--0-------|
-------------------------|------------------------|---------------------------|-------------------------|------------------------|---------------------------|-------------------------|------------------------|---------------------------|--------10----------8----|------------------------|--7--5--------10--8--------|--------8-----------6----|--1h-0--0--0------------|--5--3--------8---6--------|--0--0--------0--0-------|--1h-0--0--0------0--0--|--------0--0---------0--0--|
------------------------|---------------------------|------------------------|------------------------|---------------------------|------------------------|------------------------|---------------------------|------------------------|------------------------|--7--5--------10--8--------|------------------------|--1h-0--0--0------------|--5--3--------8---6--------|--1h-0--0--0------------|--1h-0--0--0------0--0--|--------0--0---------0--0--|--1h-0--0--0------0--0--|
---------------------------|------------------------|-------------------------|---------------------------|------------------------|-------------------------|---------------------------|------------------------|-------------------------|--7--5--------10--8--------|--------7----------5----|--------10----------8----|--5--3--------8---6--------|--------5----------3----|--------8-----------6----|--------0--0---------0--0--|--0--0-------0--0-------|--0--0--------0--0-------|
------------------|----------------------|---------------------|------------------|----------------------|---------------------|------------------|----------------------|---------------------|------------------|-----------------7----|------------6--------|------------------|--0--------------5----|------------4--------|------------------|--0--------0--0-------|------0--0-----------|
---------------------|---------------------|---------------------|---------------------|---------------------|---------------------|---------------------|---------------------|---------------------|----------------6----|------------5--------|----------------5----|----------------4----|------------3--------|----------------3----|----------0--0-------|------0--0-----------|----------0--0-------|
---------------------|---------------------|---------------------|---------------------|---------------------|---------------------|---------------------|---------------------|---------------------|------------4--------|----------------4----|------------3--------|------------2--------|----------------2----|------------1--------|------0--0-----------|----------0--0-------|------0--0-----------|
----------------------|---------------------|---------------------|----------------------|---------------------|---------------------|----------------------|---------------------|---------------------|-----------------7----|------------6--------|----------------6----|--0--------------5----|------------4--------|----------------4----|--0--------0--0-------|------0--0-----------|----------0--0-------|
---------------------|---------------------|---------------------|---------------------|---------------------|---------------------|---------------------|---------------------|---------------------|------------5--------|----------------5----|------------4--------|------------3--------|----------------3----|------------2--------|------0--0-----------|----------0--0-------|------0--0-----------|
---------------------|---------------------|----------------------|---------------------|---------------------|----------------------|---------------------|---------------------|----------------------|----------------4----|------------3--------|--7/---9----9----7/---|----------------2----|------------1--------|--5/---7----7----5/---|----------0--0-------|------0--0-----------|----------------------|
----------------------|--------------------|------------------|----------------------|--------------------|------------------|----------------------|--------------------|------------------|--9----9----9----9----|--5------------7----|------------------|--7----7----7----7----|--3------------5----|------------------|----------------------|--------------------|------------------|
----------------------|----------------------|-----------------------|----------------------|----------------------|-----------------------|----------------------|----------------------|-----------------------|--7/---9----9----7/---|--9----9----9----9----|------------------5----|--5/---7----7----5/---|--7----7----7----7----|--10----9----7----3----|----------------------|----------------------|-----------------------|
------------------|----------------------|----------------------|------------------|----------------------|----------------------|------------------|----------------------|----------------------|------------------|--7/---9----9----7/---|--9----9----9----9----|------------------|--5/---7----7----5/---|--7----7----7----7----|------------------|----------------------|----------------------|
--------------------|------------------|----------------------|--------------------|------------------|----------------------|--------------------|------------------|----------------------|--5------------7----|------------------|--7/---9----9----7/---|--3------------5----|------------------|--5/---7----7----5/---|--------------------|------------------|----------------------|
----------------------|-----------------------|------------------|----------------------|-----------------------|------------------|----------------------|-----------------------|------------------|--9----9----9----9----|------------------5----|------------------|--7----7----7----7----|--10----9----7----3----|------------------|----------------------|-----------------------|------------------|
------------------------|------------------------|------------------------|------------------------|------------------------|------------------------|------------------------|------------------------|------------------------|------------------------|------2--2--2--2--2--2--|------------------------|--5--4--4--4------2--4--|------------------------|--5--4--4--4------2--4--|--5--4--4--4------2--4--|------------------------|--5--4--4--4------2--4--|
------2--2--------------|------------------------|------------------------|------------5--5--------|------------------------|------------------------|------------------4--4--|------------------------|------------------------|------------------------|------------------------|------2--2--2--2--2--2--|------------------------|--5--4--4--4------2--4--|------------------------|------------------------|--5--4--4--4------2--4--|------------------------|
------------------------|--------------------------|------------------------|------------------------|--------------------------|------------------------|------------------------|--------------------------|------------------------|--4----------------6----|--------------6--6--------|------------------------|-------5--5--5--5-------|--7--7--7--7--------7--7--|--5--4--4--4------2--4--|------------------------|--------------------------|--5--4--4--4------2--4--|
------------------------|------------------------|------2--2--------------|------------------------|------------------------|------------5--5--------|------------------------|------------------------|------------------4--4--|------2--2--2--2--2--2--|------------------------|------------------------|------------------------|--5--4--4--4------2--4--|------------------------|------------------------|--5--4--4--4------2--4--|------------------------|
------------------------|------------------------|------------------------|------------------------|------------------------|------------------------|------------------------|------------------------|------------------------|------------------------|------2--2--2--2--2--2--|--4----------------9----|--5--4--4--4------2--4--|------------------------|-------5--5--5--5--7----|--5--4--4--4------2--4--|------------------------|------------------------|
---------------------|----------------------|-------------------|----------|---------------------|----------------------|-------------------|----------|---------------------|----------------------|-------------------|----------|------9----9----9----|--9----9----9----9----|--9/---------------|----------|------7----7----7----|--7----7----7----7----|--7/---------------|----------|---------------------|----------------------|-------------------|----------|
-------------------|------------------|------------------|--------------------|-------------------|------------------|------------------|--------------------|-------------------|------------------|------------------|--------------------|-------------------|------------------|------------------|--------------------|----------4--------|------------------|------------------|--0------------2----|----------4--------|------------------|------------------|--0------------2----|
-------------------|------------------|------------------|--------------------|-------------------|------------------|------------------|--------------------|-------------------|------------------|------------------|--------------------|-------------------|------------------|------------------|--------------------|----------4--------|------------------|------------------|--0------------2----|----------4--------|------------------|------------------|--0------------2----|
-------------------|------------------|------------------|--------------------|-------------------|------------------|------------------|--------------------|-------------------|------------------|------------------|--------------------|-------------------|------------------|------------------|--------------------|----------4--------|------------------|------------------|--0------------2----|----------4--------|------------------|------------------|--0------------2----|
--------------------------|--------------------------|--------------------|--------------------------|--------------------------|--------------------|--------------------------|--------------------------|--------------------|----------11--11--11--11--|------11--11--11--11------|--11/---------------|----------9---9---9---9---|------9---9---9---9-------|--9/----------------|--------------------------|--------------------------|--------------------|
----------------------|------------------|----------------------|----------------------|------------------|----------------------|----------------------|------------------|----------------------|----------------------|------------------|----------------------|--1--0--0--0----------|------------------|--1h-0--0--0----------|--1h-0--0--0----------|------------------|--1h-0--0--0----------|
------------------|----------------------|------------------|------------------|----------------------|------------------|------------------|----------------------|------------------|------------------|----------------------|------------------|------------------|--1h-0--0--0----------|------------------|------------------|--1h-0--0--0----------|------------------|
------------------------|-------------------------|------------------------|------------------------|-------------------------|------------------------|------------------------|-------------------------|------------------------|--------7----------5----|--------10----------8----|------------------------|--------5----------3----|--------8-----------6----|--1h-0--0--0------------|--0--0-------0--0-------|--0--0--------0--0-------|--1h-0--0--0------0--0--|
---------------------------|------------------------|---------------------------|------------------------|---------------------------|------------------------|--7--5--------10--8--------|------------------------|--5--3--------8---6--------|--1h-0--0--0------------|--------0--0---------0--0--|--1h-0--0--0------0--0--|
---------------------------|------------------------|---------------------------|------------------------|---------------------------|------------------------|--7--5--------10--8--------|------------------------|--5--3--------8---6--------|--1h-0--0--0------------|--------0--0---------0--0--|--1h-0--0--0------0--0--|
---------------------------|------------------------|-------------------------|---------------------------|------------------------|-------------------------|---------------------------|------------------------|-------------------------|--7--5--------10--8--------|--------7----------5----|--------10----------8----|--5--3--------8---6--------|--------5----------3----|--------8-----------6----|--------0--0---------0--0--|--0--0-------0--0-------|--0--0--------0--0-------|
------------------------|-------------------------|----------------10--10--|------------------------|-------------------------|------------------------|------------------------|-------------------------|------------------------|--------7----------5----|--------10----------8----|------------------------|--------5----------3----|--------8-----------6----|--0------0--------------|--0--0-------0--0-------|--0--0--------0--0-------|--0------0--------------|
--10--10/-------------||----------------------||----------------------||----------------------||----------------------||----------------------||
Roope's Solo!
---------------------10--7--|--------------------------|---------------7--8---------|--8--7--------7--8--------|---------7--9---------------|--------9--7--------9--7--|------9---------------------|--------------------------|--12------------------------|--------------------------|----------------------------|--------------------------|
--------------------------|---------------------|------------------12~---|--8----7--8--7------------|---------------------|------------------------|----------------9----7----|-------7----9b-------|--9--------9--11--------|--------------------------|--9------------------|------------------------|--------------------------|---------------------|------------------------|--------------------------|---------------------|------------------------|
------------------12--14--15--|--15--17--19--15------19--18~---|------12--15--17--------------|------------------17------------|------------------------------|--------------------------------|------------------------------|--------------------------------|------------------------------|--------------------------------|------------------------------|--------------------------------|
------------------|--19----12/-------19r---|------------------|------|------|------------------|------------------------|------------------|------|------|------------------|------------------------|------------------|------|------|------------------|------------------------|------------------|------|------|------------------|------------------------|------------------|------|------|------------------|------------------------|------------------|------|------|
--19-17-15-17-19-17-15-17-19-17-19-17-15-17-15----|-----------------------------------------------17-|--------------------------------------------------|--------------------------------------------------|--------------------------------------------------|--------------------------------------------------|
--15----------------------------------------------|-------------------------|-----17-15-17-15----15----------------------------|--15----13----10----8~---|-----------------16----16-14-16-14----14----------|-------------------------|-----------------------------------17----17-16-17-|-------------------------|--------------------------------------------------|-------------------------|--------------------------------------------------|-------------------------|
-----------12----7----|-------------------|------|------|------|------|------|------5---------------|--7/---------------|------|------|------|------|------|----------------------|-------------------|------|------|------|------|------|----------------------|-------------------|------|------|------|------|------|----------------------|-------------------|------|------|------|------|------|----------------------|-------------------|------|------|------|------|------|
Alexi's Rythmn
D||----------------------|------------------|----------------------|A||----------------------|------------------|----------------------|F||----------------------|------------------|----------------------|C||----------------------|------------------|----------------------|G||--1--0--0--0----------|------------------|--1h-0--0--0----------|C||--1h-0--0--0----------|------------------|--1h-0--0--0----------|
------------------|----------------------|------------------|------------------|----------------------|------------------|------------------|----------------------|------------------|------------------|----------------------|------------------|------------------|--1h-0--0--0----------|------------------|------------------|--1h-0--0--0----------|------------------|
------------------------|-------------------------|------------------------|------------------------|-------------------------|------------------------|------------------------|-------------------------|------------------------|--------7----------5----|--------10----------8----|------------------------|--------5----------3----|--------8-----------6----|--1h-0--0--0------------|--0--0-------0--0-------|--0--0--------0--0-------|--1h-0--0--0------0--0--|
---------------------------|------------------------|---------------------------|------------------------|---------------------------|------------------------|--7--5--------10--8--------|------------------------|--5--3--------8---6--------|--1h-0--0--0------------|--------0--0---------0--0--|--1h-0--0--0------0--0--|
---------------------------|------------------------|---------------------------|------------------------|---------------------------|------------------------|--7--5--------10--8--------|------------------------|--5--3--------8---6--------|--1h-0--0--0------------|--------0--0---------0--0--|--1h-0--0--0------0--0--|
---------------------------|------------------------|-------------------------|---------------------------|------------------------|-------------------------|---------------------------|------------------------|-------------------------|--7--5--------10--8--------|--------7----------5----|--------10----------8----|--5--3--------8---6--------|--------5----------3----|--------8-----------6----|--------0--0---------0--0--|--0--0-------0--0-------|--0--0--------0--0-------|
------------------------|------------------------|------------------------|------------------------|------------------------|------------------------|------------------------|------------------------|------------------------|------------------------|------2--2--4--4--5--5--|------------------------|--5--4--4--4------2--4--|------------------------|--5--4--4--4------2--4--|--5--4--4--4------2--4--|------------------------|--5--4--4--4------2--4--|
------2--2--------------|------------------------|------------------------|------------5--5--------|------------------------|------------------------|------------------4--4--|------------------------|------------------------|------------------------|------------------------|------2--2--4--4--5--5--|------------------------|--5--4--4--4------2--4--|------------------------|------------------------|--5--4--4--4------2--4--|------------------------|
--------------------------|--------------------------|------------------------|--------------------------|--------------------------|------------------------|--------------4--4--------|--4--4--6--6--------------|------------------------|--4--4--7--7--------6--6--|--------------6--6--------|------------------------|--------------------------|--------------------7--7--|--5--4--4--4------2--4--|--------------------------|--------------------------|--5--4--4--4------2--4--|
------------------------|------------------------|------2--2--------------|------------------------|------------------------|------------5--5--------|------------------------|------------------------|------------------4--4--|------2--2--4--4--5--5--|------------------------|------------------------|------------------------|--5--4--4--4------2--4--|------------------------|------------------------|--5--4--4--4------2--4--|------------------------|
------------------------|------------------------|--------------------------|------------------------|------------------------|--------------------------|------------------------|------------------------|--------------4--4--------|------------------------|------2--2--4--4--5--5--|--4--4--7--7--------6--6--|--5--4--4--4------2--4--|------------------------|--------------------------|--5--4--4--4------2--4--|------------------------|--------------------------|
--------------------------|---------------------|--------------------------|--------------------------|---------------------|--------------------------|--4--4--6--6--------------|---------------2--2--|--3--3--3--3--5--5--5--5--|--------------6--6--------|---------------------|--------------------------|--------------------7--7--|--0------------------|--------------------------|--------------------------|--0------------------|--------------------------|
---------------------|--------------------------|---------------------|---------------3--3--|--------------------4--4--|---------------------|---------------------|--5--5--5--5--3--3--------|---------------2--2--|---------------------|--------------------------|---------------------|--0------------------|--------------------------|--0------------------|--0------------------|--------------------------|--0------------------|
--------------------------|------------------------|---------------------------|--------------------------|------------------------|---------------------------|--3--3--3--3--5--5--5--5--|--------------4---------|--2-4-2-4-2-4-2-4-2--------|--------------------------|--4--4--7--7-------6----|---------------------------|--------------------------|------------------------|---------------------------|--------------------------|------------------------|---------------------------|
---------------------|--------------------------|---------------------|---------------------|--------------------------|---------------3--3--|---------------2--2--|--3--3--3--3--5--5--5--5--|---------------------|---------------------|--------------------------|---------------------|--0------------------|--------------------------|--0------------------|--0------------------|--------------------------|--0------------------|
--------------------------|---------------------|--------------------------|--------------------4--4--|---------------------|--------------------------|--5--5--5--5--3--3--------|---------------2--2--|--3--3--3--3--5--5--5--5--|--------------------------|---------------------|--------------------------|--------------------------|--0------------------|--------------------------|--------------------------|--0------------------|--------------------------|
------------------------|------------------|------------------------|------------------------|------------------|------------------------|------------------------|------------------|------------------------|--3----3--3--3--3--5----|------------------|------------------------|--1----1--1--1--1--3----|------------------|--5--4--4--4------2--4--|------------------------|------------------|--5--4--4--4------2--4--|
------------------------|------------------------|------2--2--------------|------------------------|------------------------|------------5--5--------|------------------------|------------------------|------------------4--4--|------2--2--4--4--5--5--|------------------------|------------------------|------------------------|--5--4--4--4------2--4--|------------------------|------------------------|--5--4--4--4------2--4--|------------------------|
------------------------|------------------------|--------------------------|------------------------|------------------------|--------------------------|------------------------|------------------------|--------------4--4--------|------------------------|------2--2--4--4--5--5--|--4--4--7--7--------6--6--|--5--4--4--4------2--4--|------------------------|--------------------------|--5--4--4--4------2--4--|------------------------|--------------------------|
--------------------------|------------------------|------------------------|--------------------------|------------------------|------------------------|--4--4--6--6--------------|------------------------|------------------------|--------------6--6--------|------------------------|------2--2--4--4--5--5--|--------------------7--7--|--5--4--4--4------2--4--|------------------------|--------------------------|--5--4--4--4------2--4--|------------------------|
------------------------|------2--2--------------|------------------------|------------------------|------------5--5--------|------------------------|------------------------|------------------4--4--|------------------------|------------------------|------------------------|------------------------|--5--4--4--4------2--4--|------------------------|--5--4--4--4------2--4--|--5--4--4--4------2--4--|------------------------|--5--4--4--4------2--4--|
------------------------|--------------------------|--------------------------|------------------------|--------------------------|--------------------------|------------------------|--------------4--4--------|--4--4--6--6--------------|------2--2--4--4--5--5--|--4--4--7--7--------6--6--|--------------6--6--------|------------------------|--------------------------|--------------------7--7--|------------------------|--------------------------|--------------------------|
---------------------|--------------------------|---------------------|---------------------|--------------------------|---------------3--3--|---------------2--2--|--3--3--3--3--5--5--5--5--|---------------------|---------------------|--------------------------|---------------------|--0------------------|--------------------------|--0------------------|--0------------------|--------------------------|--0------------------|
--------------------------|---------------------|--------------------------|--------------------4--4--|---------------------|--------------------------|--5--5--5--5--3--3--------|---------------2--2--|--3--3--3--3--5--5--5--5--|--------------------------|---------------------|--------------------------|--------------------------|--0------------------|--------------------------|--------------------------|--0------------------|--------------------------|
------------------------|-------------------|---------------------|------------------------|-------------------|---------------------|------------------------|------5r-----------|---------------2--2--|--3----3--3--3--3--5----|-------------------|---------------------|--1----1--1--1--1--3----|-------------------|--0------------------|------------------------|-------------------|--0------------------|
--------------------------|---------------------|--------------------------|--------------------------|---------------3--3--|--------------------4--4--|--3--3--3--3--5--5--5--5--|---------------------|--5--5--5--5--3--3--------|--------------------------|---------------------|--------------------------|--------------------------|--0------------------|--------------------------|--------------------------|--0------------------|--------------------------|
-------------------|---------------------|--------------------|-------------------|---------------------|--------------------|-------------------|---------------------|--------------------|-------------------|---------------------|--------------------|--0----------------|---------------------|--4------------3----|--0----------------|----------12/---4----|--4------------3----|
------------------|--------------------|-------------------|------------------|--------------------|-------------------|------------------|--------------------|-------------------|------------------|--------------------|-------------------|------------------|--------------------|-------------------|------------------|--7------------6r---|----------4--------|
------------------------|--------------------------|--------------------|------------------------|--------------------------|--------------------|------------------------|--------------------------|--------------------|------4--4--2--2--------|--4--4--4--4--2--2--------|--------------------|------------------4--4--|--------------------4--4--|--------------------|------------------------|--------------------------|--7------------9----|
-------------------|----------------5----|---------------------|-------------------|-----------7---------|--9------------------|-------------------|------6--------------|-------9----6~-------|-------------------|---------------------|---------------------|----------9--------|---------------------|---------------------|-------------------|---------------------|---------------------|
--------------------|-------------------|------------------------|--------------------|-------------------|------------------------|--------------------|-------------------|------------------------|--------------------|-------------------|------4--4--2--2--------|--------------------|-------------------|------------------4--4--|--7------------6r---|----------4--------|------------------------|
--------------------------|--------------------|--------------------|--------------------------|--------------------|--------------------|--------------------------|--------------------|--------------------|--4--4--4--4--2--2--------|--------------------|--------------------|--------------------4--4--|--------------------|--------------------|--------------------------|--7------------9----|----------11--------|
------------------------|--------------------------|----------------------|------------------------|--------------------------|----------------------|------------------------|--------------------------|----------------------|------------------------|--------------------------|----------------------|------10----10----10----|--10----10----10----10----|--1--0--0--0----------|------10----10----10----|--10----10----10----10----|--1h-0--0--0----------|
------------------|----------------------|------------------|------------------|----------------------|------------------|------------------|----------------------|------------------|------------------|----------------------|------------------|------------------|--1h-0--0--0----------|------------------|------------------|--1h-0--0--0----------|------------------|
----------------------|------------------|------------------------|----------------------|------------------|------------------------|----------------------|------------------|------------------------|----------------------|------------------|--------7----------5----|--1h-0--0--0----------|------------------|--------5----------3----|--1h-0--0--0----------|------------------|--0--0-------0--0-------|
-------------------------|------------------------|---------------------------|-------------------------|------------------------|---------------------------|-------------------------|------------------------|---------------------------|--------10----------8----|------------------------|--7--5--------10--8--------|--------8-----------6----|--1h-0--0--0------------|--5--3--------8---6--------|--0--0--------0--0-------|--1h-0--0--0------0--0--|--------0--0---------0--0--|
------------------------|---------------------------|------------------------|------------------------|---------------------------|------------------------|------------------------|---------------------------|------------------------|------------------------|--7--5--------10--8--------|------------------------|--1h-0--0--0------------|--5--3--------8---6--------|--1h-0--0--0------------|--1h-0--0--0------0--0--|--------0--0---------0--0--|--1h-0--0--0------0--0--|
---------------------------|------------------------|-------------------------|---------------------------|------------------------|-------------------------|---------------------------|------------------------|-------------------------|--7--5--------10--8--------|--------7----------5----|--------10----------8----|--5--3--------8---6--------|--------5----------3----|--------8-----------6----|--------0--0---------0--0--|--0--0-------0--0-------|--0--0--------0--0-------|
------------------|----------------------|---------------------|------------------|----------------------|---------------------|------------------|----------------------|---------------------|------------------|-----------------7----|------------6--------|------------------|--0--------------5----|------------4--------|------------------|--0--------0--0-------|------0--0-----------|
---------------------|---------------------|---------------------|---------------------|---------------------|---------------------|---------------------|---------------------|---------------------|----------------6----|------------5--------|----------------5----|----------------4----|------------3--------|----------------3----|----------0--0-------|------0--0-----------|----------0--0-------|
---------------------|---------------------|---------------------|---------------------|---------------------|---------------------|---------------------|---------------------|---------------------|------------4--------|----------------4----|------------3--------|------------2--------|----------------2----|------------1--------|------0--0-----------|----------0--0-------|------0--0-----------|
----------------------|---------------------|---------------------|----------------------|---------------------|---------------------|----------------------|---------------------|---------------------|-----------------7----|------------6--------|----------------6----|--0--------------5----|------------4--------|----------------4----|--0--------0--0-------|------0--0-----------|----------0--0-------|
---------------------|---------------------|---------------------|---------------------|---------------------|---------------------|---------------------|---------------------|---------------------|------------5--------|----------------5----|------------4--------|------------3--------|----------------3----|------------2--------|------0--0-----------|----------0--0-------|------0--0-----------|
---------------------|---------------------|----------------------|---------------------|---------------------|----------------------|---------------------|---------------------|----------------------|----------------4----|------------3--------|--7/---9----9----7/---|----------------2----|------------1--------|--5/---7----7----5/---|----------0--0-------|------0--0-----------|----------------------|
----------------------|--------------------|------------------|----------------------|--------------------|------------------|----------------------|--------------------|------------------|--9----9----9----9----|--5------------7----|------------------|--7----7----7----7----|--3------------5----|------------------|----------------------|--------------------|------------------|
----------------------|----------------------|-----------------------|----------------------|----------------------|-----------------------|----------------------|----------------------|-----------------------|--7/---9----9----7/---|--9----9----9----9----|------------------5----|--5/---7----7----5/---|--7----7----7----7----|--10----9----7----3----|----------------------|----------------------|-----------------------|
------------------|----------------------|----------------------|------------------|----------------------|----------------------|------------------|----------------------|----------------------|------------------|--7/---9----9----7/---|--9----9----9----9----|------------------|--5/---7----7----5/---|--7----7----7----7----|------------------|----------------------|----------------------|
--------------------|------------------|----------------------|--------------------|------------------|----------------------|--------------------|------------------|----------------------|--5------------7----|------------------|--7/---9----9----7/---|--3------------5----|------------------|--5/---7----7----5/---|--------------------|------------------|----------------------|
----------------------|-----------------------|------------------|----------------------|-----------------------|------------------|----------------------|-----------------------|------------------|--9----9----9----9----|------------------5----|------------------|--7----7----7----7----|--10----9----7----3----|------------------|----------------------|-----------------------|------------------|
------------------------|------------------------|------------------------|------------------------|------------------------|------------------------|------------------------|------------------------|------------------------|------------------------|------2--2--4--4--5--5--|------------------------|--5--4--4--4------2--4--|------------------------|--5--4--4--4------2--4--|--5--4--4--4------2--4--|------------------------|--5--4--4--4------2--4--|
------2--2--------------|------------------------|------------------------|------------5--5--------|------------------------|------------------------|------------------4--4--|------------------------|------------------------|------------------------|------------------------|------2--2--4--4--5--5--|------------------------|--5--4--4--4------2--4--|------------------------|------------------------|--5--4--4--4------2--4--|------------------------|
--------------------------|--------------------------|------------------------|--------------------------|--------------------------|------------------------|--------------4--4--------|--4--4--6--6--------------|------------------------|--4--4--7--7--------6--6--|--------------6--6--------|------------------------|--------------------------|--------------------7--7--|--5--4--4--4------2--4--|--------------------------|--------------------------|--5--4--4--4------2--4--|
------------------------|------------------------|------2--2--------------|------------------------|------------------------|------------5--5--------|------------------------|------------------------|------------------4--4--|------2--2--4--4--5--5--|------------------------|------------------------|------------------------|--5--4--4--4------2--4--|------------------------|------------------------|--5--4--4--4------2--4--|------------------------|
------------------------|------------------------|-------------------------|------------------------|------------------------|-------------------------|------------------------|------------------------|--------------4--4-------|------------------------|------2--2--4--4--5--5--|--4--4--7--7--------9----|--5--4--4--4------2--4--|------------------------|--------------------7----|--5--4--4--4------2--4--|------------------------|-------------------------|
---------------------|----------------------|-------------------|----------|---------------------|----------------------|-------------------|----------|---------------------|----------------------|-------------------|----------|------9----9----9----|--9----9----9----9----|--9/---------------|----------|------7----7----7----|--7----7----7----7----|--7/---------------|----------|---------------------|----------------------|-------------------|----------|
Tap to rate this tab
 
# A B C D E F G H I J K L M N O P Q R S T U V W X Y Z